» » »

Slayer, Silent Scream Tabs (ver.1)

Artists:  A B C D E F G H I J K L M N O P Q R S T U V W X Y Z # 

Silent Scream Tabs (ver.1)

Slayer Tabs
 Rating:
4/5 (4 votes)
Silent Scream lessons Tabs too difficult? Try these video lessons and learn fast
1
                slayer


solo 1
  play 4 times
eb:20-18-17----|17-18-20-17h18p17-----------------------------------------|
Bb:---------20-|------------------20-17-18-17-----------------------------|
Gb:------------|------------------------------20-17-18-17-----------------|
Db:------------|------------------------------------------20-17-18-17-----|
Ab:------------|------------------------------------------------------20\-|
Eb:------------|----------------------------------------------------------|




eb:-----------------------------------------------------------------------------15-18b|
Bb:------------------------------------------------------------------12-13-15/18------|
Gb:---------------------------------------------------12-15b-12-13-15-----------------|
Db:------------------------------------12h14-12-13-15---------------------------------|
Ab:------------------12-14-15-12-14-15------------------------------------------------|
Eb:12-13-15-12-13-15------------------------------------------------------------------|



     t       t        t         t
eb:-------*---------*---------|--------------------------------------------|
Bb:-18-14-*-17-14h15*---------|--------------------------------------------|
Gb:-------*---------*17-14h15-|------9\------------------------------------|
Db:-------*---------*---------|17-14-----7-8-10-7-8-7----------------------|
Ab:-------*---------*---------|-----------------------10-7-8-7-7h8p7-7~~ah-|
Eb:-------*---------*---------|--------------------------------------------|




solo 2 --------------------------------------
eb:-----------------------------------------------------------12-14-15-14-12-|
Bb:--------------------------------------------12-13-12-13-15----------------|
Gb:-11b--11-11-11-11-11-11-11-11-11-11-11-11~~-------------------------------|
Db:--------------------------------------------------------------------------|
Ab:--------------------------------------------------------------------------|
Eb:--------------------------------------------------------------------------|





eb:------------------------------12-14-15----------13-15-16----------14-16-17|
Bb:15-12-13-12-13-------12-13-15----------13-14-16----------14-15-17---------|
Gb:---------------14-12------------------------------------------------------|
Db:--------------------------------------------------------------------------|
Ab:--------------------------------------------------------------------------|
Eb:--------------------------------------------------------------------------|





eb:---------15-17-18----------16-18-19----------17-19-20----------18-20-21-|
Bb:15-16-18----------16-17-19----------17-18-20----------18-19-21----------|
Gb:------------------------------------------------------------------------|
Db:------------------------------------------------------------------------|
Ab:------------------------------------------------------------------------|
Eb:------------------------------------------------------------------------|



                              vib/bar 2 times  2 times   2 times   2
times
eb:22b-22b-22b-22b~~--18------17b~~-*---------*---------*---------*---------|
Bb:----------------------17b--20b~~-*---------*---------*---------*---------|
Gb:---------------------------------*---------*---------*---------*12-14-15-|
Db:---------------------------------*---------*---------*-12-13-15*---------|
Ab:---------------------------------*---------*-12-14-15*---------*---------|
Eb:---------------------------------*-12-13-15*---------*---------*---------|

                                    pm.   .  .  .   .  .  .  .  .

eb:---------------12-14-15-14-12-----------------------1717172017171722p20-|
Bb:12-13-12-13-15----------------15-13-12-------15b~~----------------------|
Gb:---------------------------------------14-12-14b~~----------------------|
Db:------------------------------------------------------------------------|
Ab:------------------------------------------------------------------------|
Eb:------------------------------------------------------------------------|




bar                    bar
eb:17171722p2017171722p20-17b-(17~~)----------------------------22\-------18b~~|
Bb:-----------------------20b-(20~~)-/20\-15b-15b-15b~~~------------------23b~~|
Gb:----------------------------------------------------------------------------|
Db:----------------------------------------------------------------------------|
Ab:------------------------------------------------------------------7\--------|
Eb:--------------------------------------------------------15\-----------------|
            
Submit corrections

comments powered by Disqus
↑ Back to top | Slayer Tabs for Silent Scream. Lyrics for acoustic guitar and electric guitar. 1 Tablatures and chords are parodies/interpretations of the original songs. You may use it for private study, scholarship, research or language learning purposes only