» » »

Raining Blood Tabs

Artists:  A B C D E F G H I J K L M N O P Q R S T U V W X Y Z # 

Raining Blood Tabs

(ver. 1)
Slayer Tabs
 Rating:
4/5 (4 votes)
    Raining Blood lessons Tabs too difficult? Try these video lessons and learn fast
                Tuning:	Eb, Ab, Db, Gb, Bb, Eb

Riff 1:
Eb:---------------------------------------------------------
Bb:---------------------------------------------------------
Gb:---------------------------------------------------------
Db:---------8-9-8---8-7---7-6-------------------------------
Ab:-------7-------9-----8-----------------------------------
Eb:-0-0-0---------------------------------------------------
    pm...
Riff 2:
Eb:---------------------------------------------------------
Bb:---------------------------------------------------------
Gb:---------------------------------------------------------
Db:---------8-9<8>-<8>7---7-6-------------------------------
Ab:-------7-------9-----8-----------------------------------
Eb:-0-0-0---------------------------------------------------
    pm...
Riff 3:
Eb:---------------------------------------------------------
Bb:---------------------------------------------------------
Gb:---------------------------------------------------------
Db:---------------------------------------------------------
Ab:-2-----2-----2-----2-----2-----2-----2-----2-----2-----2-        
Eb:-0-0-0-0-0-0-0-0-0-0-0-0-0-0-0-0-0-0-0-0-0-0-0-0-0-0-0-0-
    pm.....................................................
Eb:---------------------------------------------------------
Bb:---------------------------------------------------------
Gb:---------------------------------------------------------
Db:-------------------------3-2-----------------------------
Ab:-----2-----2-----2-----4-----3-2-------------------------
Eb:-0-0-0-0-0-0-0-0-0-2-4-----------------------------------

Riff 4:
Eb:---------------------------------------------------------
Bb:---------------------------------------------------------
Gb:---------------------------------------------------------
Db:---------------------------------------------------------
Ab:---------------------------------------------------------
Eb:-5-3-2-0-6-4-3-0-5-3-2-0-6-4-3-0-------------------------
   pm..............................
Riff 5:
E:----------------------------------------------------------
B:----------------------------------------------------------
G:----------------------------------------------------------
D:----------------------------------------------------------
A:----------------------------------------------------------
E:-5-3-2-0-6-4-3-0-5-3-2-0-6-4-3-0-5-3-2-0-6-4-3-0-5-3-2-0--
   pm.....................................................
Eb:---------------------------------------------------------
Bb:---------------------------------------------------------
Gb:---------------------------------------------------------
Db:-----------------3---------------------------------------
Ab:-----------------1---------------------------------------
Eb:-6-4-3-0-5-3-2-0---0-3-5-3-2-0-6-4-3-0-5-3-2-0-6-4-3-0-5-
    pm.............   pm...................................
Eb:---------------------------------------------------------
Bb:---------------------------------------------------------
Gb:---------------------------------------------------------
Db:---------------------------------------------------------
Ab:---------------5-8---------------------------------------
Eb:-3-2-0-6-4-3-0-3-6---------------------------------------
    pm...........
Riff 6:
Eb:---------------------------------------------------------
Bb:---------------------------------------------------------
Gb:---------------------------------------------9-8---------
Db:-------------------------------------------7-9-8---------
Ab:-------------------------------------------7-7-6---------
Eb:-0-0-0-0-0-0-0-0-0-0-0-0-0-0-0-0-0-0-0-0-0-5-----0-0-0-0-
    pm.......................................       pm.....
Eb:---------------------------------------------------------
Bb:---------------------------------------------------------
Gb:-----------7---------------------------------------------
Db:---------7-7---------------------------------------------
Ab:---------7-5---------------------------------------------
Eb:-0-0-0-0-5-----------------------------------------------
    pm.....
Riff 7:
Eb:---------------------------------------------------------
Bb:---------------------------------------------------------
Gb:-----------------------------------8-8-8-8-8-8-8-8-8-8-8-
Db:-------------------------------8-7-8-8-8-8-8-8-8-8-8-8-8-
Ab:---------7h10p8-7-8-------7-10-----6-6-6-6-6-6-6-6-6-6-6-
Eb:-0-0-0-0------------0-0-0--------------------------------
    pm.....            pm...
Eb:---------------------------------------------------------
Bb:---------------------------------------------------------
Gb:-8-------------------------------------------------------
Db:-8-7-7---------------------------------------------------
Ab:-6-7-7---------------------------------------------------
Eb:---5-5---------------------------------------------------

Riff 8:
Eb:---------------------------------------------------------
Bb:---------------------------------------------------------
Gb:---------10-11-10----10-9----9-8-------------------------
Db:-------9----------11------10-----------------------------
Ab:---------------------------------------------------------
Eb:-0-0-0---------------------------------------------------

Riff 9:
Eb:---------------------------------------------------------
Bb:---------------------------------------------------------
Gb:---------------------------------------------------------
Db:---------------------------------------------------------
Ab:-2-2--2-2--2-2--2-2--2-2--2-2--2-2--2-2------------------
Eb:-0-0--0-0--0-0--0-0--0-0--0-0--0-0--0-0------------------

Riff 10:
Eb:---------------------------------------------------------
Bb:---------------------------------------------------------
Gb:---------------------------------------------------------
Db:--------9--------8--------7------------------------------
Ab:---7-10-----7-10-----7-10-----7-10-9---------------------
Eb:-0--------0--------0--------0----------------------------
   pm       pm       pm       pm
Riff 11:
Eb:---------------------------------------------------------
Bb:---------------------------------------------------------
Gb:---------------------------------------------------------
Db:---------------------------------------------------------
Ab:-----5-9-----5-8-----5-7-----5-4-------------------------
Eb:-0-0-3-7-0-0-3-6-0-0-3-5-0-0-3-2-------------------------
    pm.     pm.     pm.     pm.
Riff 12:
Eb:---------------------------------------------------------
Bb:---------------------------------------------------------
Gb:---------------------------------------------------------
Db:---------------------------------------------------------
Ab:---------------------------------------------------------
Eb:-0-0-0-0-0-0-0-0-0-0-0-0-0-0-0-0-0-0-0-0-0-0-0-0-0-0-0-0-
    pm.....................................................
Eb:---------------------------------------------------------
Bb:---------------------------------------------------------
Gb:---------------------------------------------------------
Db:---------------------------------------------------------
Ab:---------------------------------------------------------
Eb:-0-0-0-0-0-0-0-0-0-0-0-0-0-0-0-0-0-0-0-0-0-0-0-0-0-0-0-0-
    pm.....................................................
Eb:---------------------------------------------------------
Bb:---------------------------------------------------------
Gb:---------------------------------------------------------
Db:---------------------------------------------------------
Ab:---------------------------------------------------------
Eb:-0-0-----------------------------------------------------
    pm.
Riff 13: (Backing Kerry King's Totally Insane Solo)
Eb:---------------------------------------------------------
Bb:---------------------------------------------------------
Gb:---------------------------------------------------------
Db:---------------------------------------------------------
Ab:---------------------------------------------------------
Eb:-0-0-0-0-0-0-0-0-7-7-7-7-7-7-7-7-7-7-6-6-6-6-6-6-6-6-6-6-
    pm.....................................................
Eb:---------------------------------------------------------
Bb:---------------------------------------------------------
Gb:---------------------------------------------------------
Db:---------------------------------------------------------
Ab:---------------------------------------------------------
Eb:-3-3-3-3-3-3-4-4-4-4-4-4-4-4-4-4-7-7-7-7-7-7-7-7-7-7-8-8-
    pm.....................................................
Eb:---------------------------------------------------------
Bb:---------------------------------------------------------
Gb:---------------------------------------------------------
Db:---------------------------------------------------------
Ab:---------------------------------------------------------
Eb:-8-8-----------------------------------------------------
    pm.
            
Submit corrections

↑ Back to top | Slayer Tabs for Raining Blood. Lyrics for acoustic guitar and electric guitar. Tablatures and chords are parodies/interpretations of the original songs. You may use it for private study, scholarship, research or language learning purposes only