>
 >
Kill Again 1

Kill Again 1 Guitar Tabs

Slayer - Kill Again 1 chords, tabs, tablatures, lyrics

Guitar lessons | Add/correct | Request | Top 50 tabs Artists:  A B C D E F G H I J K L M N O P Q R S T U V W X Y Z 0-9

Kill Again 1 Guitar Tabs – Slayer

CD, Sheet music, Poster

Do you like Kill Again 1? Share with your friends now
Bass TabsBass Tabs v2TabsTabs v2
Slayer- Kill Again
Hell Awaits- 1982
solo 1
eb:-------17-19-------19------------------------------------------------------------------|
Bb:----17-------19-------19-17-20---17-20----17-20----17---20-----------------------------|
Gb:-17-------------19-------------19------19-------19---19-----19-16-17-16----------------|
Db:------------------------------------------------------------------------19-16-17-16----|
Ab:------------------------------------------------------------------------------------19-|
Eb:---------------------------------------------------------------------------------------|


:--------------------------------------19\-----------------------------------------------|
:----------------------------------------------------------------------------------------|
:----------------------------------------------------------------------------------------|
:----------------------------------16-------15-16-18-15-16-18-15-16-15-------15----------|
:16-17-16-----------------16-17-19-------------------------------------18-16----18-16-15-|
:---------19-16--16-17-19----------------------------------------------------------------|


:------------------------------------------------------|
:-----------15b--16b-----------------------------------|
:-----------14b--15b--14p12---12\----------------------|
:------------------------------------------------------|
:------------------------------------------------------|
:18-16-15\---------------------------------------------|


solo 2         
bar/:-------------------------------------------------------------------------------------171920|
:------------------------------------------------------------------------------171820-------|
:7777777-7~~~--0--(0)-(0)-----0h2p0h2p0h2p0etc--0h7p0h7p0h7p0etc-0h2p0h2p0h2p0--------------|
:-------------------------------------------------------------------------------------------|
:-------------------------------------------------------------------------------------------|
:-------------------------------------------------------------------------------------------|

:171721171817-----------------------------------------------------------------|
:-------------20-18171817--------------------------------18------18-18-18-----|
:-------------------------191617191716------------161719----1919----------19\-|
:--------------------------------------1917161719-----------------------------|
:-----------------------------------------------------------------------------|
:-----------------------------------------------------------------------------|
                                                                      
play 2 times
solo 3                                                                t        
t
eb:-----------------------------------------------------------------|-------------------|
Bb:-7810-7810-------------------------------------------------------|-10-6p3h6-10-6p3h6-|
Gb:-----------10781087-------------------------5p3p0-7p5p0-7h9p7h9p7|-------------------|
Db:--------------------1078108-7AH------9~~~------------------------|-------------------|
Ab:--------------------------------7910-----------------------------|-------------------|
Eb:-----------------------------------------------------------------|-------------------|

 4 times  4 times
 t        t       t       t   t     t     bar
:--------|-------|-----------------------------|
:--------|-------|10-9p6-10p9-10p9-10p9--------|
:11-6p3--|10-6p3-|-----------------------------|
:--------|-------|-----------------------------|
:--------|-------|------------------------0----|
:--------|-------|-----------------------------|


solo 4
:----------------------------------------------------------------------------------------|
:----------------------------------------------------------------------------------------|
:/11-10h12-10h11-10h12-10h11etc...--10h11p10-11h13p11-13h14p13-14h16p14-16h18p16-16h17p16|
:----------------------------------------------------------------------------------------|
:----------------------------------------------------------------------------------------|
:----------------------------------------------------------------------------------------|

                               play 4 times
:---------------------------|17-17------------------------|
:---------------------------|------18--------18-17-16-15--|
:17h19p17-19h21h19-21h22p21-|---------17--19-19-18-17-16--|
:---------------------------|-----------------------------|
:---------------------------|-----------------------------|
:---------------------------|-----------------------------|
Mail Me at pantera cfh418 for and suggestions





Comments


Popular Slayer tabs & chords
Blood Red Bass Tabs
Diabolus In Musica Bass Tabs
Necrophiliac Bass Tabs
Playing With Dolls Bass Tabs
Seasons In The Abyss 2 Bass Tabs
Spill The Blood Drum Tabs
Anti Christ Tabs
Bloodline (Intro Ver 2) Tabs
Disorder 1 Tabs
Wicked 1 Tabs


Song lyrics



↑ Back to top | Tablatures and chords are parodies/interpretations of the original songs. You may use it for private study, scholarship, research or language learning purposes only
© 2014 AZChords.com Contact us | Privacy policy | DMCA | Add/correct tabs | Request tabs | Top 50 tabs