>
 >
In A Gadda Da Vida

In A Gadda Da Vida Guitar Tabs

Slayer - In A Gadda Da Vida chords, tabs, tablatures, lyrics

Guitar lessons | Add/correct | Request | Top 50 tabs Artists:  A B C D E F G H I J K L M N O P Q R S T U V W X Y Z 0-9

In A Gadda Da Vida Guitar Tabs – Slayer

CD, Sheet music, Poster

Do you like In A Gadda Da Vida? Share with your friends now
TabsTabs v2
In a gadda da vida- slayer



Rhythm riff
Eb:-----------------------------
Bb:-----------------------------
Gb:-----------------------------
Db:----------------------4--3--2
Ab:-2--2-2-2--5-4-2-2----2--1--0
Eb:-0--0-0-0--3-2-0-0-----------


lead
Eb:----------------------------------------
Bb:----------------------------------------
Gb:------------------------2--1--0---------
Db:---0---0---3p2------0------------3------
Ab:----------------3-----------------------
Eb:----------------------------------------

Bridge
Eb:--------------------------------------------------------
Bb:--------------------------------------------------------
Gb:------------------1--2--1--2--3--2--1--2--1h2p1---------
Db:---0--2--3--2--3--------------------------------3--2----
Ab:--------------------------------------------------------
Eb:--------------------------------------------------------

Solo
eb:-------------------------------------22b~~~~--22\----------------------|
Bb:-------15b~~~---------------------------------------14b--14b--14b--14\-|
Gb:-------17b~~~----17b~~~---16b~~~\-/-----------------13b--13b--13b--13\-|
Db:-----------------------------------------------------------------------|
Ab:-----------------------------------------------------------------------|
Eb:-0---------------------------------------------------------------------|



eb:---------------------------------------------------------------------|
Bb:------------------------------------------------12-13-12-13-15-13-12-|
Gb:------------------------------------12-14-12-14----------------------|
Db:------------------------12-14-12-14----------------------------------|
Ab:------------12-14-12-14----------------------------------------------|
Eb:12-15-12-15----------------------------------------------------------|


eb:12-14-15-14-12----------------------------------------------------------|
Bb:---------------15-12-13-15-13-12----------------------------------------|
Gb:---------------------------------14-12-14b-12h14p12----------17~~~------|
Db:----------------------------------------------------14~~~---------------|
Ab:------------------------------------------------------------------------|
Eb:------------------------------------------------------------------------|


eb:------------------------------------17p14----------------------------|
Bb:------------------------------------------17p14----------------------|
Gb:-2~~~----10~~~~--------------6b~~~---------------14-16-14------------|
Db:-----------------------------------------------------------16-14-----|
Ab:------------------------------------------------------------------17-|
Eb:---------------------12\---------------------------------------------|


eb:22b~~~-22b~~~~---19h22p19-------------------------------------------------|
Bb:--------------------------21b---19h21p19----------------------------------|
Gb:------------------------------------------21------------------------------|
Db:--------------------------------------------------------------------------|
Ab:--------------------------------------------------------------12-14-12-14-|
Eb:--------------------------------------------------12-15-12-15-------------|


eb:------------------------------------12-14-12-12-14-12-17------|
Bb:------------------------12-15-12-14---------------------------|
Gb:------------12-14-12-14---------------------------------------|
Db:12-14-12-14---------------------------------------------------|
Ab:--------------------------------------------------------------|
Eb:--------------------------------------------------------------|


Thats it, good song. solo's good if ure just learning to shred





Comments


Popular Slayer tabs & chords
Clut Bass Tabs
I Dont Want To Hear It Bass Tabs
Behind The Crooked Cross 1 Tabs
Bloodline (Intro Ver 3) Tabs
Guilty Of Being White Tabs
Kill Again Tabs
Metal Storm 2 Tabs
Not Of This God 1 Tabs
Playing With Dolls 1 Tabs
Serenity In Murder 1 Tabs


Song lyrics



↑ Back to top | Tablatures and chords are parodies/interpretations of the original songs. You may use it for private study, scholarship, research or language learning purposes only
© 2014 AZChords.com Contact us | Privacy policy | DMCA | Add/correct tabs | Request tabs | Top 50 tabs