» » »

I Hate You Tabs (ver.2)

Artists:  A B C D E F G H I J K L M N O P Q R S T U V W X Y Z # 

I Hate You Tabs (ver.2)

Slayer
Rating:
0/5 (0 votes)

Hard to play? Try these video lessons and learn fast.
                Verse
e|-----------------------------------------------------
B|-----------------------------------------------------
G|-----------------------------------------------------
D|--3-3-3-3-3-3-3-3--4-4-4-4-4-4-4-4--8-8-8--4-4-4--3
A|--3-3-3-3-3-3-3-3--4-4-4-4-4-4-4-4--8-8-8--4-4-4--3
E|--1-1-1-1-1-1-1-1--2-2-2-2-2-2-2-2--6-6-6--2-2-2--1

Chours
e|--------------------------------------------------------
B|---------------------------------------------4-4-4-4-4-4
G|--3-3-3-3-3-3-3-3--8-8-8-8-8-8-8-8--4-4-4-4-------------
D|--3-3-3-3-3-3-3-3--8-8-8-8-8-8-8-8--4-4-4-4-------------
A|--1-1-1-1-1-1-1-1--6-6-6-6-6-6-6-6--2-2-2-2-------------
E|--------------------------------------------------------
            
Hard to play? Try these video lessons and learn fast. | Correct




comments powered by Disqus
↑ Back to top | Tablatures and chords are parodies/interpretations of the original songs. You may use it for private study, scholarship, research or language learning purposes only