>
 >
God Send Death

God Send Death Guitar Tabs

Slayer - God Send Death chords, tabs, tablatures, lyrics

Guitar lessons | Add/correct | Request | Top 50 tabs Artists:  A B C D E F G H I J K L M N O P Q R S T U V W X Y Z 0-9

God Send Death Guitar Tabs – Slayer

CD, Sheet music, Poster

Do you like God Send Death? Share with your friends now
Bass TabsTabsTabs v2
"God Send Death"

Written by Jeff Hanneman




Tune guitars down 1  steps
6=C# 3=E
5=F# 2=G#
4=B  1=C#


INTRO                                     __________________________________________________
gtr I                                    |1st time                |2nd time
-7-------7-------8-------10------7-------14------13-------8-------|-15------14------8-------
-0-------0-------0-------0-------0-------0-------0--------0-------|-0-------0-------0-------
                                          __________________________________________________
gtr II                                   |1st time                |2nd time (gtrs II & III)


gtr I
-7-------7-------8-------10------7-------14------6---5---3-------
-0-------0-------0-------0-------0-------0-------4---3---1-------
                                                         
gtr II                                                   
-2-----------------------------------------------6---5---3-------
-0-----------------------------------------------4---3---1-------


gtr I
-7-------7-------8-------10------6---5---3---5---6---10--9---6---
-0-------0-------0-------0-------4---3---1---3---4---8---7---4---
                                                         
gtr II                                                   
---------------------------------6---5---3---5---6---10--9---6---
---------------------------------4---3---1---3---4---8---7---4---



gtr I & II (gtr III plays whsound backside)
 P.M.__________________________________________________________________________________|
-2-2---2-2---2-2---2-2---2-2---2-2---2-2---2-2---2-2---2-2---2-2---2-2---2-2---2-2---2-2---
-0-0---0-0---0-0---0-0---0-0---0-0---0-0---0-0---0-0---0-0---0-0---0-0---0-0---0-0---0-0---



VERSERIFF ("On your back look on to me......")
 P.M._________________________________________________________|
-7---7---7---7---8---8---10--10--14--14--14--14--13--13--8---8---
-0---0---0---0---0---0---0---0---0---0---0---0---0---0---0---0---



 ("God send death end misery......")
 let ring.................................................
---------9-------------------------------9-------8---------------
-7---------------8-------10------7-----------------------8-------
(0)-0-0-(0)-0-0-(0)-0-0-(0)-0-0-(0)-0-0-(0)-0-0-(0)-0-0-(0)-0-0--


 let ring..................|
---------9-------------------------------10------9---------------
-7---------------8-------10------7-----------------------8-------
(0)-0-0-(0)-0-0-(0)-0-0-(0)-0-0-(0)----------------------6-------


CHORUSRIFF

---------------------------------
---------------------------------
---------------------------------
-9----9-9---9------9-----8-------  x8
-7----7-7---7----7----------9-5--
-0----0-0---0--------------------


VERSERIFF
 P.M._________________________________________________________|
-7---7---7---7---8---8---10--10--14--14--14--14--13--13--8---8---
-0---0---0---0---0---0---0---0---0---0---0---0---0---0---0---0---




 let ring.................................................
---------9-------------------------------9-------8---------------
-7---------------8-------10------7-----------------------8-------
(0)-0-0-(0)-0-0-(0)-0-0-(0)-0-0-(0)-0-0-(0)-0-0-(0)-0-0-(0)-0-0--


 let ring..................|
---------9-------------------------------10------9---------------
-7---------------8-------10------7-----------------------8-------
(0)-0-0-(0)-0-0-(0)-0-0-(0)-0-0-(0)----------------------6-------



CHORUSRIFF
                 _______________________________
                |1-7th times     |8th time
---------------------------------|--------------
---------------------------------|--------------
---------------------------------|--------------
-9----9-9---9------9-----8-------|--------------
-7----7-7---7----7----------9-5--|-6--5--3------
-0----0-0---0--------------------|-4--3--1------


effect guitar 1 time (Plays: G   E   F A#  A)
then after little drumfill:

("Clawing at the eyes of god you taste your death in hand......")

 P.M._________________________________________________________|
-5---5---5---2---2---2---3---3---8---8---8---7---7---7---7---7---
-3---3---3---0---0---0---1---1---6---6---6---5---5---5---5---5---


 G           E           F              G# G  F  G  G# C  B  G#
-----------------------------------    -------------------------
-----------------------------------    -------------------------
-----------------------------------    -------------------------
----------------------------------- x3 -------------------------
-5-----5-5---2-----2-----3---------    -6--5--3--5--6--10-9--6--
-3-----3-3---0-----0-----1---------    -4--3--1--3--4--8--7--4--


SOLOPART
RIFF
 F#      C#      F#      C       F#      C#      A#      G
---------44444444--------33333333--------44444444-----------------
-22222222--------22222222--------22222222--------6666666633333333-


gtr I
   P.M._________
-----------------
-----------------
-----------------
-----------------
-4---------------
-2-1-0-1-0-2-0-1-
                    x3
gtr II
-----------------
-----------------
-----------------
-4---------------
-4---------------
-2---------------


 F#       C#      G       A       F#      C#      A#      F
----------44444444------------------------44444444-----------------
-222222222--------333333335555555522222222--------6666666611111111-



 F#       C#      G       A       F#      C#      A#      G
----------44444444------------------------44444444-----------------
-222222222--------333333335555555522222222--------6666666633333333-


gtr I
   P.M._________
-----------------
-----------------
-----------------
-----------------
-4---------------
-2-1-0-1-0-2-0-1-

                    x4
gtr II
-----------------
-----------------
-----------------
-4---------------
-4---------------
-2---------------

 F#       C#      C       A       F#      C#      A#      A
----------4444444433333333----------------44444444-----------------
-222222222----------------5555555522222222--------6666666655555555-


gtr I
   P.M._________
-----------------
-----------------
-----------------
-----------------
-4---------------
-2-1-0-1-0-2-0-1-

                    x3
gtr II
-----------------
-----------------
-----------------
-4---------------
-4---------------
-2---------------

 F#       C#      G       A       F#      C#      A#      F
----------44444444------------------------44444444-----------------
-222222222--------333333335555555522222222--------6666666611111111-


VERSE ("Death's design blood splattered wall......")
 let ring.................................................
---------99-9----------------------------99-9----88-8------------
-77-7------------88-8----101010--77-7--------------------88-8----
(0)-0-0-(0)-0-0-(0)-0-0-(0)-0-0-(0)-0-0-(0)-0-0-(0)-0-0-(0)-0-0--


 let ring..................|
---------99-9-------------------------------------------------------
-77-7------------88-8----101010--8----8----8----8----8----8---------
(0)-0-0-(0)-0-0-(0)-0-0-(0)-0-0--6----6----6----6----6----6---------



---------99-9----------------------------99-9----88-8------------
-77-7------------88-8----101010--77-7--------------------88-8----
(0)-0-0-(0)-0-0-(0)-0-0-(0)-0-0-(0)-0-0-(0)-0-0-(0)-0-0-(0)-0-0--

---------99-9----------------------------10------9---------------
-77-7------------88-8----101010--7-----------------------8-------
(0)-0-0-(0)-0-0-(0)-0-0-(0)-0-0-(0)----------------------6-------


CHORUSRIFF
                 _______________________________
                |1, 2, 3 times   |4th time
---------------------------------|--------------
---------------------------------|--------------
---------------------------------|--------------	THE
-9----9-9---9------9-----8-------|--------------	END
-7----7-7---7----7----------9-5--|-6--5--3------
-0----0-0---0--------------------|-4--3--1------


                    T A B S   O F   G O D  H A T E S  U S  A L L
                       G  O  D    S  E  N  D    D  E  A  T  H  

                            T E R O   S A I K K O N E N

				F  I  N  L  A  N  D





Comments


Popular Slayer tabs & chords
Bloodline 4 Bass Tabs
Violent Pacification Bass Tabs
Bloodline 3 Tabs
Chemical Warfare 1 Tabs
Crypts Of Eternity Tabs
Deviance Tabs
Human Disease Tabs
New Faith 1 Tabs
Overt Enemy 1 Tabs
Skeletons Of Society 2 Tabs


Song lyrics



↑ Back to top | Tablatures and chords are parodies/interpretations of the original songs. You may use it for private study, scholarship, research or language learning purposes only
© 2014 AZChords.com Contact us | Privacy policy | DMCA | Add/correct tabs | Request tabs | Top 50 tabs