» » »

Slayer, Filler Bass tabs (ver.1)

Artists:  A B C D E F G H I J K L M N O P Q R S T U V W X Y Z # 

Filler Bass tabs (ver.1)

Slayer Tabs
 Rating:
4/5 (4 votes)
Filler lessons Tabs too difficult? Try these video lessons and learn fast
                This is really two fast songs.
I´ve just played guitar for 2 years now, so this might not be so good tabbed.
If you just listen to the album you will learn to play the songs.
Tune down 1/2 step.

FILLER

Intro: 
and

VERSE:
Bb|-9--9--9--9--9--4-4-4-6-6------------------------------------|
Eb|--------------------------5-5-5-----------------------------|
CHORUS: 2x
Bb|-7--5--0------------------------------------------------|
Eb|----------2---------------------------------------------|
Verse
Chorus 2x
Solo
Verse 4x
Chorus 4x

I DON`T WANT TO HEAR IT
Intro: bass
Verse:         
I Don´t wanna hear it  All you do is talk about you...
Gb|--------------------------------------------------------|
Bb|--------------2-2-2-7-7-7-------------------------------|
Eb|-2-2-0-2-2-2--------------------------------------------|
Chorus:           
I Don´t wanna hear it  I know you're full of sh*t... Bb|--10-10--7----------------------------------------------|
Eb|-----------7-10-10-10-10-10-10--------------------------|
            
Submit corrections

comments powered by Disqus
↑ Back to top | Slayer Bass for Filler. Lyrics for acoustic guitar and electric guitar. Tablatures and chords are parodies/interpretations of the original songs. You may use it for private study, scholarship, research or language learning purposes only