» » »

Slayer, Fight Till Death Tabs (ver.3)

Artists:  A B C D E F G H I J K L M N O P Q R S T U V W X Y Z # 

Fight Till Death Tabs (ver.3)

Slayer Tabs
Rating:
0/5 (0 votes)
Fight Till Death lessons Tabs too difficult? Try these video lessons and learn fast
                (Solo)
solo
e:---------------------------------15h18p15---------------------|
B:------------------------------------------18-etc--------------|
G:19-19-19-19-19-19-19-19-19-19etc------------------17b-17-15---|
D:------------------------------------------------------------17|
A:--------------------------------------------------------------|
E:--------------------------------------------------------------|


                        ----------------------------------
e:-----------------------------------------------------------------------|
B:---------------------------------------------------------------15-16-18|
G:15----------------15-17b-17-17-17-17-17-17-17-17-17-17-17--17\---------|
D:---17-15----15-17------------------------------------------------------|
A:---------17------------------------------------------------------------|
E:-----------------------------------------------------------------------|


                                                       -play 2 
times--------------
e:----------------------------------------------------*---------------------------|
B:16-15-----------------------------------------------*15-15-15-16-15-15-17-15-15-|
G:------18-15-16-18-16-15-----------------------------*---------------------------|
D:------------------------18-15-16-18-16-18----16b-16b*---------------------------|
A:------------------------------------------18--------*---------------------------|
E:----------------------------------------------------*---------------------------|


---------------------
e:-------------------|---------------------------------------------------|
B:-20-15-15-18-15-15-|---------------------------------------------------|
G:-------------------|-17b-p-15----------------------15-------15------15\|
D:-------------------|----------17p15-17p15----17p15----17p15----17p15---|
A:-------------------|----------------------17---------------------------|
E:-------------------|---------------------------------------------------|



e:----------------------------------------------------------------------|
B:----------------------------------------------------------------------|
G:----------------------------------------------------------------------|
D:-910910-10121012-12131213-13151315-15171517-17191719-19201920-22232223|
A:----------------------------------------------------------------------|
E:----------------------------------------------------------------------|




e:---------------------------------------------------------------------------------|
B:------------------------------------------------12b------------------------------|
G:------------------------------------12-14-12-14-----12-14-15-12-14-15-12-14-15etc|
D:------------------------12-14-12-14----------------------------------------------|
A:------------12-14-12-14----------------------------------------------------------|
E:12-15-12-15----------------------------------------------------------------------|



              vib.     3 1/2 times
e:----15b-15b~~~---*12-12-12-13-12-12-15-*------17\--14-15-19--------------|
B:16\--------------*---------------------*-15\----------------19-14-15-14--|
G:-----------------*---------------------*---------------------------------|
D:-----------------*---------------------*---------------------------------|
A:-----------------*---------------------*---------------------------------|
E:-----------------*---------------------*---------------------------------|



       vib.
e:17\--------------17\--1414141514151417-*-14-15-14-17-14-15-14-17--|
B:---------------------------------------*--------------------------|
G:----14b~~~--14\------------------------*--------------------------|
D:---------------------------------------*--------------------------|
A:---------------------------------------*--------------------------|
E:---------------------------------------*--------------------------|



e:----------------------------------------------------------------|
B:-17-14-15-14-15-14-17-------------------------------------------|
G:----------------------17-14-15-14-17-14-17----------------------|
D:-------------------------------------------17-14-15-14-15-14-17-|
A:----------------------------------------------------------------|
E:----------------------------------------------------------------|




e:-----------------------------------------|
B:-----------------------------------------|
G:-----------------------------------------|
D:-----------------------------------------|
A:-17-14-15-14-15-14-17-(17)-(17)----------|
E:-----------------------------------------|
            

comments powered by Disqus
↑ Back to top | Slayer Tabs for Fight Till Death. Lyrics for acoustic guitar and electric guitar. Tablatures and chords are parodies/interpretations of the original songs. You may use it for private study, scholarship, research or language learning purposes only