>
 >
Disciple 2

Disciple 2 Guitar Tabs

Slayer - Disciple 2 chords, tabs, tablatures, lyrics

Guitar lessons | Add/correct | Request | Top 50 tabs Artists:  A B C D E F G H I J K L M N O P Q R S T U V W X Y Z 0-9

Disciple 2 Guitar Tabs – Slayer

CD, Sheet music, Poster

Do you like Disciple 2? Share with your friends now
Bass TabsBass Tabs v2TabsTabs v2Tabs v3Tabs v4
tune the guitar 3 steps down

                                             
e:---------------------------|
B:---------------------------|
G:---------------------------|
D:---------------------------|
A:-5-2--5-7--5-2-------------|
E:-3-0--3-5--3-0-------------|


    repeat                
Eb|----------------------------|
Bb|----------------------------|
F#|----------------------------|
C#|--------9------------9------|
G#|----------8p7-----------8-7-|
C#|-000-000------000-000-------|


e:---------------------------|
B:---------------------------|
G:---------------------------|
D:-9p8---8p7---7p6-----------|
A:-----7-----6-----4---------|
E:---------------------------|


verse
     repeat
e:---------------------|
B:---------------------|
G:---------------------|
D:---------------------|
A:---------------------|
E:-0-0-0--3-2-0--2-4-0-|

  god hates us all!!
e:---------------------------------------|
B:---------------------------------------|
G:---------------------------------------|
D:---------------------------------------|
A:---------------------------------------|
E:-00-00-0h1-0-0h1-00-00-0h1-0-0h1-00-00-|

e:-----------------------------------|
B:-----------------------------------|
G:-----------------------------------|
D:-----------------------------------|
A:-2-2----2-2----2-2----2-2----2-2---|
E:-0-0----0-0----0-0----0-0----0-0---|

                pick with bend
                ---------   ---------   -------
e:----------------------------------------------|
B:----------------------------------------------|
G:------------8b-8-8-8-8--8b-8-8-8-8--8b-8-8-8-8|
D:----------------------------------------------|
A:----------------------------------------------|
E:----------------------------------------------|


   repeat
e:-------------------|
B:-------------------|
G:-------------------|
D:-------------------|
A:-3-2-----------3-2-|
E:-1-0-0-0-0-0-0-1-0-|


 repeat 3 times
Eb|------------------|----------------------------|------------------|
Bb|------------------|
F#|------------------|
C#|------------------|
G#|------------------|
C#|-1(1)/4-000-000---|

     repeat
e:---------------------|
B:---------------------|
G:---------------------|
D:---------------------|
A:---------------------|
E:-0-0-0--3-2-0--2-4-0-|



  god hates us all!!
e:-----------------------------------|
B:-----------------------------------|
G:-----------------------------------|
D:-----------------------------------|
A:-2-2----2-2----2-2----2-2----2-2---|
E:-0-0----0-0----0-0----0-0----0-0---|

                pick with bend
                ---------   ---------   -------
e:----------------------------------------------|
B:----------------------------------------------|
G:------------8b-8-8-8-8--8b-8-8-8-8--8b-8-8-8-8|
D:----------------------------------------------|
A:----------------------------------------------|
E:----------------------------------------------|


    repeat                
Eb|------------------|----------------------------|------------------|
Bb|----------------------------|
F#|----------------------------|
C#|--------9------------9------|
G#|----------8p7-----------8-7-|
C#|-000-000------000-000-------|

solo
e:-22b-(22)~~~~-19-20-19-20-19-20-22-20-19-------------------19-20|
B:-----------------------------------------22-19-20-22-20-19------|
G:----------------------------------------------------------------|
D:----------------------------------------------------------------|
A:----------------------------------------------------------------|
E:----------------------------------------------------------------|


e:-19-20---------------------------------------------------------|
B:-------22-19-20-22-20-19---------------------------------------|
G:-------------------------21-18-19-21-19-18---------------------|
D:-------------------------------------------20-18-17/-----------|
A:---------------------------------------------------------------|
E:---------------------------------------------------------------|
                                                        

  wah
e:--------------------------------------------------------------|
B:--------------------------------------------------------------|
G:-----------------------------------------------17-19-17-19----|
D:--------------------17-19-17-19----17-19-17-19-------------19-|
A:-/17-19-17-19-17-19-------------19----------------------------|
E:--------------------------------------------------------------|


                                   
e:----------------------------------------------------------|
B:--------------17-18-17-18-17-18-20-18-17------------------|
G:-17-19-17-19-----------------------------20-17-18-20-18-17|
D:----------------------------------------------------------|
A:----------------------------------------------------------|
E:----------------------------------------------------------|


                              pitch G
e:-----------------------------------------------------------|
B:-----------------------------------------------------------|
G:--------------------17b~~~~--------0(AH)-(0)--(0)----------|
D:-20-17-18-20-18-17-----------------------------------------|
A:-----------------------------------------------------------|
E:------------------------------19/--------------------------|

gt1
e:-----------------------------------------------|
B:-----------------------------------------------|
G:-----------------------------------------------|
D:-----------------------------------------------|
A:-----------------------------------------------|
E:-3p2-000-3p2-000-2222--3p2-000-3p2-000-3p2--66-|


gt2
e:--------------------------------------------------|
B:--------------------------------------------------|
G:--------------------------------------------------|
D:--------------------------------------------------|
A:--5-------5-------------5-------5-------5------7--|
E:--3-------3-------------3-------3-------3------5--|


  repeat 3 times
e:--------------------------|
B:--------------------------|
G:--------------------------|
D:--------------------------|
A:--------7777-------8888---|
E:-000000-----000000--------|


e:------------------------|
B:------------------------|
G:------------------------|
D:------------------------|
A:------------------------|
E:-5555-4444-1111-3333----|



repeat 3 times
e:--------------------------|
B:--------------------------|
G:--------------------------|
D:--------------------------|
A:--------7777-------8888---|
E:-000000-----000000--------|


e:------------------------|
B:------------------------|
G:------------------------|
D:------------------------|
A:------------------------|
E:-5555-4444-1111-3333----|


   repeat            
e:--------------------------------------|
B:--------------------------------------|
G:--------------------------------------|
D:--------------------------------------|
A:-2-2--5-5--4-4--2-4-5-5--8-8--7-7-----|
E:-0-0--3-3--2-2--0-2-3-3--6-6--5-5-----|


  repeat 3 times
e:--------------------------------------------|
B:--------------------------------------------|
G:--------------------------------------------|
D:--------------------------------------------|
A:--------------------------------------------|
E:-3p2-000-3p2-000-2222--3p2-000-3p2-000-6666-|

 
   repeat 4 times
e:-----------------------------------------|
B:-----------------------------------------|
G:-----------------------------------------|
D:-----------------------------------------|
A:-----------------------------------------|
E:-2222-5555-1111--2222-5555-0000----------|


         repeat 3 times           
e:--------------------------------------|
B:--------------------------------------|
G:--------------------------------------|
D:--------------------------------------|
A:-2-2--5-5--4-4--2-4-5-5--8-8--7-7-----|
E:-0-0--3-3--2-2--0-2-3-3--6-6--5-5-----|

               
                                  pitch b
e:------------------------------------------------------|
B:-----------------------------------0(Ah)-(0)--(0)-----|
G:------------------------------------------------------|
D:------------------------------------------------------|
A:-2---5---4---2---4---5---8---7------------------------|
E:-0---3---2---0---2---3---6---5------------------------|


e:-------------------|
B:-------------------|
G:-------------------|
D:-------------------|
A:-4-4--7-7--3-3-3-3-|
E:-2-2--5-5--1-1-1-1-|


e:--------------------|
B:--------------------|
G:--------------------|
D:--------------------|
A:-4-4--7-7--6-6--3-3-|
E:-2-2--5-5--4-4--1-1-|
                                                        

e:-------------------------|
B:-------------------------|
G:-------------------------|
D:-------------------------|
A:-4-4--7-7--6-6--8-8--3-3-|
E:-2-2--5-5--4-4--6-6--1-1-|

 
 i reject this ***ing.... 

   repeat
e:--------------------|
B:--------------------|
G:--------------------|
D:--------------------|
A:-4-4--7-7--6-6--3-3-|
E:-2-2--5-5--4-4--1-1-|
                                                        

e:-------------------------|
B:-------------------------|
G:-------------------------|
D:-------------------------|
A:-4-4--7-7--6-6--8-8--3-3-|
E:-2-2--5-5--4-4--6-6--1-1-|


e:-----------|
B:-----------|
G:-----------|
D:-----------|
A:-4-4--7-7--|
E:-2-2--5-5--|


e:-------------------|
B:-------------------|
G:-------------------|
D:-------------------|
A:---3-3-3-3-3-3-----|
E:---1-1-1-1-1-1-----|

well thatīs about it at the last part of the song i didnt quite put all the 
sequence in the end of the song but thatīs the chords of how it goes, so i 
dont thik it would be much of a problem, oh and the tune that has the tab 
EADGBe is not the one, is 3 step down from that one. ok have fun be hated
with this song.





Comments


Popular Slayer tabs & chords
Desciple Bass Tabs
Diabolus In Musica Bass Tabs
Kill Again 2 Bass Tabs
Spiritual Law Bass Tabs
Aggressive Perfector 1 Tabs
Eyes Of The Insane Tabs
Filleri Dont Want To Hear It Tabs
In The Name Of God 2 Tabs
Spill The Blood 2 Tabs
Stain Of Mind Tabs


Song lyrics



↑ Back to top | Tablatures and chords are parodies/interpretations of the original songs. You may use it for private study, scholarship, research or language learning purposes only
© 2014 AZChords.com Contact us | Privacy policy | DMCA | Add/correct tabs | Request tabs | Top 50 tabs