>
 >
Dead Skin Mask (Solo)

Dead Skin Mask (Solo) Guitar Tabs

Slayer - Dead Skin Mask (Solo) chords, tabs, tablatures, lyrics

Guitar lessons | Add/correct | Request | Top 50 tabs Artists:  A B C D E F G H I J K L M N O P Q R S T U V W X Y Z 0-9

Dead Skin Mask (Solo) Guitar Tabs – Slayer

CD, Sheet music, Poster

Do you like Dead Skin Mask (Solo)? Share with your friends now
Tabs
SLAYER- DEAD SKIN MASK GUITAR SOLO
ALBUM- SEASONS IN THE ABYSS 

=  - palm mute           /  - slide up to
\  - slide down to       ~  - vibrato
h  - hammer on           b  - Bend
p  - pull off            Suffixes for bend
t  - tap                 f  - full bend    h - half bend
ph - pinched harmonic    q  - quarter bend t - tap bend
*  - see comment         ^  - Hold bend    r release bend
x  - Stuccatto           ~  - vibrato bend
,  - slight palm mute    () - ghost note, sustained note
"  - tremolo note         - Trill

GUITAR SOLO
|----------------------------------------------------------------------5///|
|--------------------------------------------------------------------------|
|---------------------------------------------------11H14P11-12-(12)~~-----|
|-------------------11H12P11---------------11H12H14------------------------|
|----------10H12H14----------14---10H12H14---------------------------------|
|-10H12H14-----------------------------------------------------------------|


|-/17P16-17P16-13P12-17P16-17P16-13P12|
|-------------------------------------|
|-------------------------------------|
|-------------------------------------|
|-------------------------------------|
|-------------------------------------|

|------------------------------------------------------|
|-17P15-17P15-13P12-17P15-17P15-13P12------------------|
|-------------------------------------16P14-16P14-13P11|
|------------------------------------------------------|
|------------------------------------------------------|
|------------------------------------------------------|

|------------------------------------------|
|------------------------------------------|
|-16P14-16P14-13P11------------------------|
|-------------------15P14-15P14-12P10------|
|-------------------------------------15P14|
|------------------------------------------|

|----------------------------12--17--12---------|
|------------------------15--------------15----^|
|--------------------14----------------------14F|
|---------------^-------------------------------|
|-15P14-12P10-12F-------------------------------|
|-----------------------------------------------|

|--^----^---^----------------|
|-/--\-/-\-/-\---------------|
|^----^---^----(14)GR--------|
|----------------------------|
|-----------------------X\\\-|
|----------------------------|

|----------------------------------------------------------------|
|--------------------------------------------------------12H13H15|
|-----------------------------------------------12H13H15---------|
|-----------------------------------12H14P12H14------------------|
|-9H10H12-9H10H12-12H13H15-12H13H15------------------------------|
|----------------------------------------------------------------|


|----------12H13P12H13P12---------------------^---^---^--|
|-12H13H15----------------15P13P12-13P12P10-12B-12B-12B\-|
|--------------------------------------------------------|
|--------------------------------------------------------|
|--------------------------------------------------------|
|--------------------------------------------------------|


|-------------------------------------------------------------------------|
|-13P9H13P9\6P0H6H9/13P9H13P9\6P0H6H9/13P9H13P9\6P0H6H8/12P8H12P8\6P0H6H9/|
|-------------------------------------------------------------------------|
|-------------------------------------------------------------------------|
|-------------------------------------------------------------------------|
|-------------------------------------------------------------------------|


|-------------------------------------------------------------------------|
|-13P9H13P9\6P0H6H9/13P9H13P9\6P0H6H8/12P8H12P8\6P0H3H6/10P6H10P6\3P0H3H6/|
|-------------------------------------------------------------------------|
|-------------------------------------------------------------------------|
|-------------------------------------------------------------------------|
|-------------------------------------------------------------------------|
                                                                                    

|--------------------------16|
|-/12---12~~~~~~-10--12/17---|
|----------------------------|
|----------------------------|
|----------------------------|
|----------------------------|

                                                      pick slide

|-19P17P16-19P17P16-18P16P15-17P15P14-16P14P13-15P13P12------|
|-------------------------------------------------------X\---|
|------------------------------------------------------------|
|------------------------------------------------------------|
|------------------------------------------------------------|
|------------------------------------------------------------|

|-------------------------------------|
|-------------------------------------|
|------------------------------8h10h12|
|----------------7h8h10-7h8h10--------|
|-7h9h10-9h10h12----------------------|
|-------------------------------------|
       
|------------------------------------------------^----|
|---------------------------------------------^-15----|
|-8h10h12-9h11h13-9h11h13-10h11h13/15h13h15-17f-17f-17|
|-----------------------------------------------------|
|-----------------------------------------------------|
|-----------------------------------------------------|

         __________                                 
                                                      
|------^----------^------^--^-|
|-15-18b----------18--18b-\/--|
|-----------------------------|
|-----------------------------|
|-----------------------------|
|-----------------------------|

                               ^^^^^^^^^^^^^^^^^^^^^^^^^ 
                                     pull bar up
|----------------------------------------------------|
|-18p15-18p15\13-15p13-15----------------(15)--------|
|----------------------------------------------------|
|----------------------------------------------------|
|----------------------------------------------------|
|----------------------------------------------------|


|------------------------------------------------------|
|------------------------------------------------------|
|------------------------------------------------------|
|--------------2h4h5-----2h5/7-----4h5h7/9-----6h7h9/10|
|--5-----2h3h5-------3h5-------5h7---------7h9---------|
|----3h5-----------------------------------------------|

|-----------------------------------------------|
|-----------------------------------------------|
|------------------------------11------8h9h11/12|
|------7h8h10/12-------11h12h1----9h11----------|
|-8h10-----------12h14--------------------------|
|-----------------------------------------------|

|-----------------------------------|
|-----------------------------------|
|-------9h10h12/13-------10h11h13/14|
|-10h12------------11h12------------|
|-----------------------------------|
|-----------------------------------|


|---------------------------------------------------------------------|
|------------------------------------------15------------------------^|
|----------11h12-9-11h12h14p12/17p14h16h17----17p16p14h16p14----14-16b|
|-11h12h14---------------------------------------------------17-------|
|---------------------------------------------------------------------|
|---------------------------------------------------------------------|
     --------------                                                                  
|-----------------------------------------------------------|
|---^---------------^------------^--------------------------|
|-16b-16--16--16--16b---16--14-(14f)-(14)--11h12p11-14p12p11|
|-----------------------------------------------------------|
|-----------------------------------------------------------|
|-----------------------------------------------------------|

  Use Bar 
|---------------------------------|
|----------------------------(14)-|
|---------------------------------|
|-14p12p11-14p12p11---------------|
|---------------------------------|
|---------------------------------|


|-----------------------------------------------------------|
|-(14)\-----------------------------------------------------|
|------------------------------------------------------14---|
|--------------------------------12(12)/14h15h17p15h17----17|
|-----------------12----12-14h15----14----------------------|
|--------12h13h15----15-------------------------------------|

|------------------------17-(17)|
|----------------19b-19F-19f(19)|
|-14/16-19p17h19-19F-19F--------|
|-------------------------------|
|-------------------------------|
|-------------------------------|





Comments


Popular Slayer tabs & chords
Can't Stand You 1 Bass Tabs
Crionics Bass Tabs
Gemini 2 Bass Tabs
Necrophobic Bass Tabs
Stain Of Mind Drum Tabs
Angel Of Death 3 Tabs
Exile Tabs
Perversions Of Pain 3 Tabs
Piece By Piece 1 Tabs
Playing With Dolls Intro Tabs


Song lyrics



↑ Back to top | Tablatures and chords are parodies/interpretations of the original songs. You may use it for private study, scholarship, research or language learning purposes only
© 2014 AZChords.com Contact us | Privacy policy | DMCA | Add/correct tabs | Request tabs | Top 50 tabs