>
 >
Dead Skin Mask

Dead Skin Mask Guitar Tabs

Slayer - Dead Skin Mask chords, tabs, tablatures, lyrics

Guitar lessons | Add/correct | Request | Top 50 tabs Artists:  A B C D E F G H I J K L M N O P Q R S T U V W X Y Z 0-9

Dead Skin Mask Guitar Tabs – Slayer

CD, Sheet music, Poster

Do you like Dead Skin Mask? Share with your friends now
Bass TabsTabsTabs v2Tabs v3
Here is all I have worked out:
----------------------------|------------------|---------
----------------------------|------------------|-------------------
----------------------------|--------9---------|--------7------------
-----9-10------9-10-----9-10|-7-9-10-----------|-7-9-10-------------
---7---------8--------7-----|------------------|------------------------
-0---------0--------0-------|------------------|------------------------
|1st and 3rd ending|2nd and 4th ending repeat this each of the 4 | |
times with these endings--> | |

Main Riff: (The open E notes are palm muted)
---------------------------------------------------------
-2-----2-------------3-------------4---2/3---------------------------
-2-----2-------------1-------------2---0/1------------------------------
-0-0-0-0-0-0-3/0-0-0---0-0-3/0-0-0---0-----3-2-1-0------------------

Verse Riff:
-2---------------------------5/4----------------------------------------
-2---------------------------3/2------------------------------
-0----------------------------|--0-3-2-1-0--------------------- Let this
chord ring out |--->this slide might be wrong it might be from B to Bb

Oh well, its probably wrong, but it sounds right to me.  Let me know
what you think.  Thanks, G.

G (Galen Myers)~~~~~~~~~~~~~~~~~~~~~~~~~~~~~~~~~~~~~~~~~~~~~~~~~~~~~~~~~~~~~
Like -S.Pumpkins,AllmanBros,Pantera,Primus,Misfits,Live,Weezer,Prince
      FNM,NWA,DYoakam,PFloyd,GDead,SRV,Hendrix,JAddiction,
Abhor-STP,NIN,MManson,REM,VanHalen,Hole,QRyche,Offspring,GDay,Vai,VSalt,
      DTheater,MPuppets,CSoul,RATM,WZombie,DinoJr
"To defy the laws of tradition is a crusade only of the brave"-Les
~~~~~~~~~~~~~~~~~It's just a signature~~~~~~~~~~~~~~~~~~~~~~~~~~~~~~~~~~~~~~





Comments


Popular Slayer tabs & chords
At Dawn They Sleep Bass Tabs
Playing With Dolls Bass Tabs
Spirit In Black 1 Bass Tabs
Postmortem Drum Tabs
Angel Of Death 5 Tabs
Hallowed Point 2 Tabs
Hate Worldwide 1 Tabs
Playing With Dolls 1 Tabs
Sex, Murder, Art 1 Tabs
Silent Scream 6 Tabs


Song lyrics



↑ Back to top | Tablatures and chords are parodies/interpretations of the original songs. You may use it for private study, scholarship, research or language learning purposes only
© 2014 AZChords.com Contact us | Privacy policy | DMCA | Add/correct tabs | Request tabs | Top 50 tabs