» » »

Slayer, Born On Fire Tabs (ver.1)

Artists:  A B C D E F G H I J K L M N O P Q R S T U V W X Y Z # 

Born On Fire Tabs (ver.1)

Slayer Tabs
 Rating:
4/5 (4 votes)
Born On Fire lessons Tabs too difficult? Try these video lessons and learn fast
                
solo1
eb:------------------------------------------------------------------------|
Bb:------------------------------------------------------------------------|
Gb:-------19-20b-----------------------------------------------------12-14b|
Db:-18-20---------20--18----19b-------------------------12-14-12-12--------|
Ab:----------------------21-----------------12-14-12-14--------------------|
Eb:-----------------------------12-15-12-15--------------------------------|

bar
:------------------------------------------------------------------------|
:------------------------------------------------------------------------|
:---------------------------------------------2AH-3AH---0----------------|
:-----------------------------------12----14-----------------------------|
:--------------------12-13-15-12-14----14--------------------------------|
:-9-10-12---12-13-15-----------------------------------------------------|

:----------------------------------------|
:-16b-17b---------------16b--17b---------|
:-----------17--15vib-------------17--15-|
:----------------------------------------|
:----------------------------------------|
:----------------------------------------|

solo 2
:------------------|-repeat-|repeat|repeat|repeat|repeat|repeat|repeat-|
:------------------|-t------|t-----|t-----|t-----|-t----|-t----|-t-----|
:-7b-vib----7/17\7-|-5p3----|6p4---|7p6---|9p7---|12p10-|14p12-|15p13--|
:------------------|--------|------|------|------|------|------|-------|
:------------------|--------|------|------|------|------|------|-------|
:------------------|--------|------|------|------|------|------|-------|

:repeat|-----------------------------------------------------------|
:--t---|--t------t------t------t------t------21b--21b--21b--21b/\--|
:-16p14|-17p15--18p16--19p17--20p18--21p19---21b--21b--21b--21b/\--|
:------|-----------------------------------------------------------|
:------|-----------------------------------------------------------|
:------|-----------------------------------------------------------|

:------------------------------------------------------------------------|
:------------------7/12---14b------15b------------------------------14-15|
:------------7/12---------14b--14--15b-15-15-15vib---------14-15-17------|
:------7/12----------------------------------------14-15-17--------------|
:7/12--------------------------------------------------------------------|
:------------------------------------------------------------------------|

:---14-17b-vib-----------|
:17----------------------|
:------------------------|
:------------------------|
:------------------------|
:------------------------|

solo 3
:22b---22b--22~~~~~-|18-19-21-------|---------18vib-|
:-------------------|---------21-19-|---------------|
:-------------------|---------------|---------------|
:-------------------|---------------|---------------|
:-------------------|-3-times-------|-----17\-------|
:-------------------|---------------|-15--15\-------|

:------------------------------------------------18Bslowly~~~~~~~-|
:-----------------------------------------------------------------|
:-14-16-17-14-----------------------------------------------------|
:-------------17-16-14--------------------------------------------|
:----------------------17-16-14-----------------------------------|
:-------------------------------17-15-17-15-17\-------------------|

:--------------|--------|3-times|3-times|3-times|15p12--|
:-/2-/4-/7-/14-|--------|-------|--t----|17p15--|-t-----|
:--------------|-t------|--t----|-16p14-|-t-----|-------|
:--------------|17p12/14|-17p14-|-------|-------|-------|
:--------------|--------|-------|-------|-------|-------|
:--------------|--------|-------|-------|-------|3-times|

t t t t t t t t
:21p19-20p18--19p17-18p16--17p15--16p14-15p13-14p12----------------------|
:------------------------------------------------------------------------|
:------------------------------------------------------------------------|
:------------------------------------------------------------------------|
:------------------------------------------------------X\----------------|
:------------------------------------------------------X\--pick-slide----|
            
Submit corrections

comments powered by Disqus
↑ Back to top | Slayer Tabs for Born On Fire. Lyrics for acoustic guitar and electric guitar. Tablatures and chords are parodies/interpretations of the original songs. You may use it for private study, scholarship, research or language learning purposes only