» » »

Black Magic 1 Tabs (ver.3)

Artists:  A B C D E F G H I J K L M N O P Q R S T U V W X Y Z # 

Black Magic 1 Tabs (ver.3)

Slayer
Rating:
0/5 (0 votes)

Hard to play? Try these video lessons and learn fast.
                ---------7---------7-8---------7-8-10---8-7---------------------- repeat a few times
-0-0-0-0---0-0-0-0-----0-0-0-0-------10--------------------------
pm.....    .......     ......        

---------9-------9-10------9--------5-7--------------------------------
---------9-------9-10------9--------5-7--------------------------------
---------7-------7/8-------7--------3/5---------------------------------
-0-0-0-0--0-0-0-0---0-0-0-0--0-0-0-0--------------------------------------
pm...... ........   .......  ........
                   (pre-verse)
-----------------------------------------------
----------------------------------------------
------9-----10--------------------------------
------9-----10---------------------------------
------7-----8------7 (bend)--------------------------
--0000-0000---0000-----------------------------------
pm.... ....   ....
       (verse)
 (low e-string) -4444-6666-1111-2222------------------------------
            
Hard to play? Try these video lessons and learn fast. | Correct




comments powered by Disqus
↑ Back to top | Tablatures and chords are parodies/interpretations of the original songs. You may use it for private study, scholarship, research or language learning purposes only