>
 >
Angel Of Death

Angel Of Death Guitar Tabs

Slayer - Angel Of Death chords, tabs, tablatures, lyrics

Guitar lessons | Add/correct | Request | Top 50 tabs Artists:  A B C D E F G H I J K L M N O P Q R S T U V W X Y Z 0-9

Angel Of Death Guitar Tabs – Slayer

CD, Sheet music, Poster

Do you like Angel Of Death? Share with your friends now
Bass TabsDrum TabsTabsTabs v2Tabs v3Tabs v4Tabs v5Tabs v6
Tuning: Eb, Ab, Db, Gb, Bb, Eb

Riff 1:
Eb:-------------------------------------------------------------
Bb:-------------------------------------------------------------
Gb:-------------------------------------------------------------
Db:-------------------------------------------------------------
Ab:-2-----------------------3-3-----------------------4-4-------
Eb:-0-0-0-0-0-0-0-0-0-0-0-0-1-1-0-0-0-0-0-0-0-0-0-0-0-2-2-0-0-0-
      pm...................     pm...................     pm...
Eb:-------------------------------------------------------------
Bb:-------------------------------------------------------------
Gb:-------------------------------------------------------------
Db:-------------------------------------------------------------
Ab:-----------------------3---3/7-6-----------------------------
Eb:-0-0-0-0-0-0-0-0-0-0-0-1-0-1/5-4-----------------------------
    pm...................

Riff 2:
Eb:-------------------------------------------------------------
Bb:-------------------------------------------------------------
Gb:-------------------------------------------------------------
Db:-------------------------------------------------------------
Ab:-2-------------8-----------------------------4/7-3-2---------
Eb:-0-0-0-0-0-0-0-6-0-0-0-0-0-0-0-0-0-0-0-0-0-0-2/5-1-0-0-0-0-0-
      pm.........   pm.........................         pm.....
Eb:-------------------------------------------------------------
Bb:-------------------------------------------------------------
Gb:-------------------------------------------------------------
Db:-------------------------------------------------------------
Ab:-----8-----------------------------3/6-6-2-------------8-----
Eb:-0-0-6-0-0-0-0-0-0-0-0-0-0-0-0-0-0-1/4-4-0-0-0-0-0-0-0-6-0-0-
    pm.   pm.........................         pm.........   pm.
Eb:-------------------------------------------------------------
Bb:-------------------------------------------------------------
Gb:-------------------------------------------------------------
Db:-------------------------------------------------------------
Ab:-------------------------4/7-3-2-------------8---------------
Eb:-0-0-0-0-0-0-0-0-0-0-0-0-2/5-1-0-0-0-0-0-0-0-6-0-0-0-0-0-0-0-
    pm.....................         pm.........   pm...........
Eb:-------------------------------------------------------------
Bb:-------------------------------------------------------------
Gb:-------------------------------------------------------------
Db:-------------------------------------------------------------
Ab:---------------7/8-8-----------------------------------------
Eb:-0-0-0-0-0-0-0-5/6-6-----------------------------------------
    pm...........

Riff 3:
Eb:-------------------------------------------------------------
Bb:-------------------------------------------------------------
Gb:-------------------------------------------------------------
Db:-------------------------------------------------------------
Ab:-----------------------------------------------4-------------
Eb:-0-1-1-1-1-1-1-2-1-1-1-1-1-1-3-1-1-1-1-1-1-4-1-2-------------
        pm.......   pm.........   pm.........

Riff 4:
Eb:-------------------------------------------------------------
Bb:-------------------------------------------------------------
Gb:-------------------------------------------------------------
Db:-------------------------------------------------------6-5---
Ab:-7h8p7-------------6h7p6---5h6p5---4h5p4-7h8p7-------4-----5-
Eb:-------0-0-0-0-0-0-------0-------0-------------0-0-6---------

Eb:-------------------------------------------------------------
Bb:-------------------------------------------------------------
Gb:-------------------------------------------------------------
Db:-----6-----9-8-----------------------------------------------
Ab:-6-7-----7---------------------------------------------------
Eb:-------9-----------------------------------------------------


Riff 5:
Eb:-------------------------------------------------------------
Bb:-------------------------------------------------------------
Gb:-------------------------------------------------------------
Db:-------------------------------------------------------------
Ab:-2-2-3-2---------2-3-----7-8-2-2-3-2-------------------------
Eb:-0-0-1-0-0-0-0-0-0-1-0-0-5-6-0-0-1-0-0-0-0-0-0-0-0-0-0-0-0---
            pm.....     pm.             pm...................

Riff 6:
Eb:-------------------------------------------------------------
Bb:-------------------------------------------------------------
Gb:-------------------------------------------------------------
Db:-------------------------------------------------------------
Ab:-2-2-3-2---------2-3-----7-8-2-2-3-2-------11-7-----8---10---
Eb:-0-0-1-0-0-0-0-0-0-1-0-0-5-6-0-0-1-0-0-0-0------9-6---9------
            pm.....     pm.             pm...

Riff 7:
Eb:-------------------------------------------------------------
Bb:---------------------------------------------------------10\-
Gb:----------------------------------------------------10-9-----
Db:-----------------------------------------------10-9----------
Ab:-2-2-3-2---------2-3-----7-8-2-2-3-2-------8-7---------------
Eb:-0-0-1-0-0-0-0-0-0-1-0-0-5-6-0-0-1-0-0-0-0-------------------
            pm.....     pm.             pm...

Eb:-------------------------------------------------------------
Bb:-------------------------------------------------------------
Gb:-------------------------------------------------------------
Db:-------------------------------------------------------------
Ab:-3-3-3-3-3-6-6-6-5-5-5---------------------------------------
Eb:-1-1-1-1-1-4-4-4-3-3-3---------------------------------------


Solo:
Eb:-21b(23)-21b(23)-21-19h21p19----19-21b(23)-21-19h21p19-------
Bb:-----------------------------21------------------------21----
Gb:-------------------------------------------------------------
Db:-------------------------------------------------------------
Ab:-------------------------------------------------------------
Eb:-------------------------------------------------------------

Eb:-------------------------------------------------------------
Bb:-18h20p18----------------------------------------------------
Gb:----------20-18h20p18----------------------------------------
Db:----------------------20-18h20p18-------------------------12-
Ab:----------------------------------20----------12-13-12-15----
Eb:-------------------------------------12-13-15----------------

Eb:------------------------------12-14-15-14-12-----------------
Bb:----------------12-13-12-13-15---------------15-13-12-13-12--
Gb:-------12-14-15----------------------------------------------
Db:-14-15-------------------------------------------------------
Ab:-------------------------------------------------------------
Eb:-------------------------------------------------------------

Eb:-------------------------------------------------------------
Bb:-------------------------------------------------------------
Gb:-14-12-3b(5)-3b(4)-3b(5)-3b(4)-3b(5)-3-2-3-5-3-2-------------
Db:-------------------------------------------------5-2-3-5-3-2-
Ab:-------------------------------------------------------------
Eb:-------------------------------------------------------------

Eb:-------------------------------------------------------15-17-
Bb:----------------------------------------------15-16-18-------
Gb:-------------------6-7-9---------11-12-14-12\----------------
Db:-3-2---------5-6-8-------9-10-12-----------------------------
Ab:-----5-3-2~~-------------------------------------------------
Eb:-------------------------------------------------------------

Eb:-19----------------------------------------------------------
Bb:----18-15-16-15----------------------------------------------
Gb:----------------17-15-<17>b(19)-2b(4)-2b(3)-2b(4)-2p0h2p0h2--
Db:-------------------------------------------------------------
Ab:-------------------------------------------------------------
Eb:-------------------------------------------------------------

Eb:--------------------------------18b(20)-16-17-19-17-16-------
Bb:----------------------------/17------------------------19-16-
Gb:-2b(4)-5b(7)-9b(11)-17b(19)----------------------------------
Db:-------------------------------------------------------------
Ab:-------------------------------------------------------------
Eb:-------------------------------------------------------------

Eb:------------------------------------------------------12-13--
Bb:-17-19-17-16-------------------------------------------------
Gb:-------------18-15-16-18-16-15-------------------------------
Db:-------------------------------18-15-16-18-16-15-14~~--------
Ab:-------------------------------------------------------------
Eb:-------------------------------------------------------------

Eb:-15-------12-12-13-12-12-13-15-12-13-15----------------------
Bb:----15-13-------------------------------15-12-13-12----------
Gb:----------------------------------------------------14-12-14-
Db:-------------------------------------------------------------
Ab:-------------------------------------------------------------
Eb:-------------------------------------------------------------

Eb:-------------------------------------------------------------
Bb:-------------------------------------------------------------
Gb:-12-11-------------------------------------------------------
Db:-------15-13-12---------------------------------------12-14--
Ab:----------------15-13-12-11~~-12-12-12-13-15-12-13-15--------
Eb:-------------------------------------------------------------

Eb:-------------------------------------------------------------
Bb:-------------------------------12-15b(17)~-15b(17)-17b(19)~~-
Gb:-------------12-13-15-12-13-15-------------------------------
Db:-15-12-14-15-------------------------------------------------
Ab:-------------------------------------------------------------
Eb:-------------------------------------------------------------

Eb:-----22-19-20-22-19-20-19-20-22------------------------------
Bb:-17\----------------------------22-20-19---------------------
Gb:-----------------------------------------21-18-19-18-19-21---
Db:-------------------------------------------------------------
Ab:-------------------------------------------------------------
Eb:-------------------------------------------------------------

Eb:----------------------------------------------------22b(23)~-
Bb:-------------------------------------------------------------
Gb:-19-18-------------------------------------------------------
Db:-------21-18-19-18-19-21-19-18-------------------------------
Ab:-------------------------------20-17-18-17-------------------
Eb:-------------------------------------------20-18-17----------

Eb:-22~~----------------13~~~~----------------------------------
Bb:------------------12-----------------------------------------
Gb:-------------------------------------------------------------
Db:-------------------------------------------------------------
Ab:---------------17--------------------------------------------
Eb:------16(Dive)-----------------------------------------------





Comments


Popular Slayer tabs & chords
Hate Worldwide Bass Tabs
Mandatory Suicide Bass Tabs
Jesus Saves Drum Tabs
Addict 1 Tabs
Behind The Crooked Cross 1 Tabs
Mandatory Suicide 4 Tabs
Piece By Piece Tabs
Read Between The Lies Tabs
Seven Faces Tabs
The Final Command Tabs


Song lyrics



↑ Back to top | Tablatures and chords are parodies/interpretations of the original songs. You may use it for private study, scholarship, research or language learning purposes only
© 2014 AZChords.com Contact us | Privacy policy | DMCA | Add/correct tabs | Request tabs | Top 50 tabs