>
 >
Americon

Americon Guitar Tabs

Slayer - Americon chords, tabs, tablatures, lyrics

Guitar lessons | Add/correct | Request | Top 50 tabs Artists:  A B C D E F G H I J K L M N O P Q R S T U V W X Y Z 0-9

Americon Guitar Tabs – Slayer

CD, Sheet music, Poster

Do you like Americon? Share with your friends now
Bass TabsTabsTabs v2
Album:World Painted Blood
Tuning-Drop-B (B-Gb-B-E-Ab-Db)

intro x8
Db|-----------------------|
Ab|-----------------------|
E |-----------------------|
B |----7-7-78--87--7/10-8-|
Gb|----5-5-56--65--5/8--6-|
B |12/--------------------|

riff A x4
Db|-----------------------|
Ab|-----------------------|
E |-----------------------|
B |-----------------------|
Gb|-3p0-0-3-4----3---3----|
B |-3p0-0-3-4--0-3p0-3p0--|

riff B Guitar 1 x2
Db|----------------------------------------|
Ab|----------------------------------------|
E |----------------------------------------|
B |-7-7-78--87--7/10-8--7-7-78--87--7/10-8-|
Gb|-5-5-56--65--5/8--6--5-5-56--65--5/8--6-|
B |----------------------------------------|

riff B Guitar 2 w/Wah x2
Db|---------------------------------------|
Ab|---------------------------------------|
E |---------------------------------------|
B |---------------------------------------|
Gb|-5----6------5------9---------6-----5--|
B |---------------------------------------|

riff A x4
Db|-----------------------------|
Ab|-----------------------------|
E |-----------------------------|
B |-----------------------------|
Gb|-3p0-0-3-4----3---3----------|
B |-3p0-0-3-4--0-3p0-3p0-000000-|

riff B Guitar 1 x2
Db|----------------------------------------|
Ab|----------------------------------------|
E |----------------------------------------|
B |-7-7-78--87--7/10-8--7-7-78--87--7/10-8-|
Gb|-5-5-56--65--5/8--6--5-5-56--65--5/8--6-|
B |----------------------------------------|

riff B Guitar 2 w/Wah x2
Db|---------------------------------------|
Ab|---------------------------------------|
E |---------------------------------------|
B |---------------------------------------|
Gb|-5----6------5------9---------6-----5--|
B |---------------------------------------|

riff C x3
Db|-------------------------|
Ab|-------------------------|
E |-------------------------|
B |-------------------------|
Gb|-1-00-14----1110---------|
B |-1-00-14--0-1110--000000-|

riff C x1
Db|----------------------------------|
Ab|----------------------------------|
E |----------------------------------|
B |----------------------------------|
Gb|-1-00-14---1---1----4444-5555-----|
B |-1-00-14-0-1p0-1p0--4444-5555-----|

riff B x4
Db|----------------------------------------|
Ab|----------------------------------------|
E |----------------------------------------|
B |-7-7-78--87--7/10-8--7-7-78--87--7/10-8-|
Gb|-5-5-56--65--5/8--6--5-5-56--65--5/8--6-|
B |----------------------------------------|

solo riff A x4
Db|-------------------------------|
Ab|-------------------------------|
E |-------------------------------|
B |-5----4----0----4----1----0----|
Gb|-5----4----0----4----1----0----|
B |-5----4----0----4----1----0----|

solo riff B
Db|---------------------------------------------------|
Ab|---------------------------------------------------|
E |---------------------------------------------------|
B |---------------------------------------------------|
Gb|---------------------------------------------------|
B |33322222222333222222223332222222266655533322222222-|

Db|-----------------------------------|
Ab|-----------------------------------|
E |-----------------------------------|
B |-----------------------------------|
Gb|-----------------------88877777777-|
B |33322222222333222666555------------|


Db|----------------------------------------------------------------------|
Ab|----------------------------------------------------------------------|
E |----------------------------------------------------------------------|
B |----------------------------------------------------------------------|
Gb|88877777777888777111111101010888777777788877777777888777111111101010--|
B |----------------------------------------------------------------------|

riff B guitar 1 x8
Db|----------------------------------------|
Ab|----------------------------------------|
E |----------------------------------------|
B |-7-7-78--87--7/10-8--7-7-78--87--7/10-8-|
Gb|-5-5-56--65--5/8--6--5-5-56--65--5/8--6-|
B |----------------------------------------|

riff B guitar 2 x8
Db|---------------------------------------|
Ab|---------------------------------------|
E |---------------------------------------|
B |---------------------------------------|
Gb|-5----6------5------9---------6-----5--|
B |---------------------------------------|


riff A x4
Db|-----------------------------|
Ab|-----------------------------|
E |-----------------------------|
B |-----------------------------|
Gb|-3p0-0-3-4----3---3----------|
B |-3p0-0-3-4--0-3p0-3p0-000000-|


Db|------------------------------------------------|
Ab|------------------------------------------------|
E |------------------------------------------------|
B |------------------------------------------------|
Gb|------------------------------------88877777777-|
B |222222223332222222233322222222666555------------|


Db|----------------------------------------------------------------------|
Ab|----------------------------------------------------------------------|
E |----------------------------------------------------------------------|
B |----------------------------------------------------------------------|
Gb|88877711111110101088877777778887777777788877711111110101088877777777--|
B |----------------------------------------------------------------------|





Comments


Popular Slayer tabs & chords
Angel Of Death Bass Tabs
Bloodline Bass Tabs
Temptation Bass Tabs
The Final Command Bass Tabs
Altar Of Sacrifice Drum Tabs
Bitter Piece Tabs
Bitter Piece 1 Tabs
Overt Enemy 2 Tabs
Seasons In The Abyss Intro Tabs
World Painted Blood 5 Tabs


Song lyrics



↑ Back to top | Tablatures and chords are parodies/interpretations of the original songs. You may use it for private study, scholarship, research or language learning purposes only
© 2014 AZChords.com Contact us | Privacy policy | DMCA | Add/correct tabs | Request tabs | Top 50 tabs