>
 >
Abolish Government - Superficial Love

Abolish Government - Superficial Love Guitar Tabs

Slayer - Abolish Government - Superficial Love chords, tabs, tablatures, lyrics

Guitar lessons | Add/correct | Request | Top 50 tabs Artists:  A B C D E F G H I J K L M N O P Q R S T U V W X Y Z 0-9

Abolish Government - Superficial Love Guitar Tabs – Slayer

CD, Sheet music, Poster

Do you like Abolish Government - Superficial Love? Share with your friends now
Tabs
                      Abolish Government/Superficial Love                       

This is my text adaptation of the GuitarPro version.
                                                                          Slayer
Jeff Hanneman



      Q    E  E  E  E  E  E     E  E   E  E   E  E  E  E   
D#||-------------------------|----------------------------|
A#||-------------------------|----------------------------|
F#||--4----4--4--4--4--4--4--|--L--4S--9--9--10--L--7--L--|
C#||--2----2--2--2--2--2--2--|--L--2S--7--7---8--L--5--L--|
G#||-------------------------|----------------------------|
D#||-------------------------|----------------------------|


  Q    E  E  E  E  E  E     E  E   E  E   E  E  E  E   
-------------------------|----------------------------|
-------------------------|----------------------------|
--4----4--4--4--4--4--4--|--L--4S--9--9--10--L--7--L--|
--2----2--2--2--2--2--2--|--L--2S--7--7---8--L--5--L--|
-------------------------|----------------------------|
-------------------------|----------------------------|


  Q    E  E  E  E  E  E     E  E   E  E   E  E  E  E   
-------------------------|----------------------------|
-------------------------|----------------------------|
--4----4--4--4--4--4--4--|--L--4S--9--9--10--L--7--L--|
--2----2--2--2--2--2--2--|--L--2S--7--7---8--L--5--L--|
-------------------------|----------------------------|
-------------------------|----------------------------|


  Q    E  E  E  E  E  E     Q    E  Q.     Q     
-------------------------|----------------------|
-------------------------|----------------------|
--4----4--4--4--4--4--4--|--6-------5------5----|
--2----2--2--2--2--2--2--|--4-------3------3----|
-------------------------|----------------------|
-------------------------|----------------------|


  Q     E    E    E    E    E    E      E   E    E    E   E  E  E  E   
-------------------------------------|--------------------------------|
-------------------------------------|--------------------------------|
-------------------------------------|--------------------------------|
-------------------------------------|--------------------------------|
--2----(2)--(2)--(2)--(2)--(2)--(2)--|--L--(7)--(7)--(7)--8--L--5--L--|
--0-----0----0----0----0----0----0---|--L---5----5----5---6--L--3--L--|


  Q     E    E    E    E    E    E      E   E    E    E   E  E  E  E   
-------------------------------------|--------------------------------|
-------------------------------------|--------------------------------|
-------------------------------------|--------------------------------|
-------------------------------------|--------------------------------|
--2----(2)--(2)--(2)--(2)--(2)--(2)--|--L--(7)--(7)--(7)--8--L--5--L--|
--0-----0----0----0----0----0----0---|--L---5----5----5---6--L--3--L--|


  Q     E    E    E    E    E    E      E   E    E    E   E  E  E  E   
-------------------------------------|--------------------------------|
-------------------------------------|--------------------------------|
-------------------------------------|--------------------------------|
-------------------------------------|--------------------------------|
--2----(2)--(2)--(2)--(2)--(2)--(2)--|--L--(7)--(7)--(7)--8--L--5--L--|
--0-----0----0----0----0----0----0---|--L---5----5----5---6--L--3--L--|


  Q     E    E    E    E    E    E      Q    E  Q.     Q     
-------------------------------------|----------------------|
-------------------------------------|----------------------|
-------------------------------------|----------------------|
-------------------------------------|----------------------|
--2----(2)--(2)--(2)--(2)--(2)--(2)--|--4-------3------3----|
--0-----0----0----0----0----0----0---|--2----0--1------1----|


  Q     E    E    E    E    E    E      E   E    E    E   E  E  E  E   
-------------------------------------|--------------------------------|
-------------------------------------|--------------------------------|
-------------------------------------|--------------------------------|
-------------------------------------|--------------------------------|
--2----(2)--(2)--(2)--(2)--(2)--(2)--|--L--(7)--(7)--(7)--8--L--5--L--|
--0-----0----0----0----0----0----0---|--L---5----5----5---6--L--3--L--|


  Q     E    E    E    E    E    E      E   E    E    E   E  E  E  E   
-------------------------------------|--------------------------------|
-------------------------------------|--------------------------------|
-------------------------------------|--------------------------------|
-------------------------------------|--------------------------------|
--2----(2)--(2)--(2)--(2)--(2)--(2)--|--L--(7)--(7)--(7)--8--L--5--L--|
--0-----0----0----0----0----0----0---|--L---5----5----5---6--L--3--L--|


  Q     E    E    E    E    E    E      E   E    E    E   E  E  E  E   
-------------------------------------|--------------------------------|
-------------------------------------|--------------------------------|
-------------------------------------|--------------------------------|
-------------------------------------|--------------------------------|
--2----(2)--(2)--(2)--(2)--(2)--(2)--|--L--(7)--(7)--(7)--8--L--5--L--|
--0-----0----0----0----0----0----0---|--L---5----5----5---6--L--3--L--|


  Q     E    E    E    E    E    E      Q    E  Q.     Q     
-------------------------------------|----------------------|
-------------------------------------|----------------------|
-------------------------------------|----------------------|
-------------------------------------|----------------------|
--2----(2)--(2)--(2)--(2)--(2)--(2)--|--4-------3------3----|
--0-----0----0----0----0----0----0---|--2----0--1------1----|


  Q    Q    Q    Q       W                   Q    E  E   E   E   E  E   
----------------------|-------------------|----------------------------|
----------------------|-------------------|----------------------------|
----------------------|-------------------|----------------------------|
----------------------|-------------------|-------------10--10--10--9--|
--9-------------------|-------------------|--9----9--9---8---8---8--7--|
--7-------------------|-------------------|--7----7--7-----------------|


  E  E  E  E   Q     Q        Q    E  E   E   E   E  E   
---------------------------|----------------------------|
---------------------------|----------------------------|
---------------------------|----------------------------|
--L--9--9--9---------------|-------------10--10--10--9--|
--L--7--7--7--12S----7S----|--9----9--9---8---8---8--7--|
--------------10S----5S----|--7----7--7-----------------|


  E  E  E  E   Q     Q        Q    E  E   E   E   E  E   
---------------------------|----------------------------|
---------------------------|----------------------------|
---------------------------|----------------------------|
--L--9--9--9---------------|-------------10--10--10--9--|
--L--7--7--7--12S----7S----|--9----9--9---8---8---8--7--|
--------------10S----5S----|--7----7--7-----------------|


  E  E  E  E   Q     Q        Q    E  E   E   E   E  E   
---------------------------|----------------------------|
---------------------------|----------------------------|
---------------------------|----------------------------|
--L--9--9--9---------------|-------------10--10--10--9--|
--L--7--7--7--12S----7S----|--9----9--9---8---8---8--7--|
--------------10S----5S----|--7----7--7-----------------|


  E  E  E  E   Q     Q        Q    E  E   E   E   E  E   
---------------------------|----------------------------|
---------------------------|----------------------------|
---------------------------|----------------------------|
--L--9--9--9---------------|-------------10--10--10--9--|
--L--7--7--7--12S----7S----|--9----9--9---8---8---8--7--|
--------------10S----5S----|--7----7--7-----------------|


  E  E  E  E   Q     Q        Q    E  E   E   E   E  E   
---------------------------|----------------------------|
---------------------------|----------------------------|
---------------------------|----------------------------|
--L--9--9--9---------------|-------------10--10--10--9--|
--L--7--7--7--12S----7S----|--9----9--9---8---8---8--7--|
--------------10S----5S----|--7----7--7-----------------|


  E  E  E  E   Q     Q        Q    E  E   E   E   E  E   
---------------------------|----------------------------|
---------------------------|----------------------------|
---------------------------|----------------------------|
--L--9--9--9---------------|-------------10--10--10--9--|
--L--7--7--7--12S----7S----|--9----9--9---8---8---8--7--|
--------------10S----5S----|--7----7--7-----------------|


  E  E  E  E   Q     Q        Q    Q     Q     Q     
---------------------------|------------------------|
---------------------------|------------------------|
---------------------------|------------------------|
--L--9--9--9---------------|--9----9----10----10----|
--L--7--7--7--12S----7S----|--7----7-----8-----8----|
--------------10S----5S----|------------------------|


   E   E   E    Q     E   Q       Q    Q     Q     Q     
-------------------------------|------------------------|
-------------------------------|------------------------|
-------------------------------|------------------------|
-------------------------------|--9----9----10----10----|
--10--10--10S--11----11--11----|--7----7-----8-----8----|
---8---8---8S---9-----9---9----|------------------------|


   E   E   E    Q     E   Q       E  E  Q      E   E   E   E   
-------------------------------|------------------------------|
-------------------------------|------------------------------|
-------------------------------|--9--9--9s----10--10--10--10--|
-------------------------------|--9--9--9s----10--10--10--10--|
--10--10--10S--11----11--11----|------------------------------|
---8---8---8S---9-----9---9----|------------------------------|


                                                          \2                    
   Q.      Q.      Q       E  E  Q      E   E   E   E     Q    Q    Q     Q     
------------------------|------------------------------|-----------------------|
------------------------|------------------------------|-----------------------|
------------------------|--9--9--9s----10--10--10--10--|-----------------------|
------------------------|--9--9--9s----10--10--10--10--|-----------------------|
--10\-------------------|------------------------------|-----------------------|
-----------9~------L----|------------------------------|--0----L----L-----L----|


  Q    E  E   E   E   E  E     E  E  E  E   Q     Q      
----------------------------|---------------------------|
----------------------------|---------------------------|
----------------------------|---------------------------|
-------------10--10--10--9--|--L--9--9--9---------------|
--9----9--9---8---8---8--7--|--L--7--7--7--12S----7S----|
--7----7--7-----------------|--------------10S----5S----|


  Q    E  E   E   E   E  E     E  E  E  E   Q     Q      
----------------------------|---------------------------|
----------------------------|---------------------------|
----------------------------|---------------------------|
-------------10--10--10--9--|--L--9--9--9---------------|
--9----9--9---8---8---8--7--|--L--7--7--7--12S----7S----|
--7----7--7-----------------|--------------10S----5S----|


  Q    E  E   E   E   E  E     E  E  E  E   Q     Q      
----------------------------|---------------------------|
----------------------------|---------------------------|
----------------------------|---------------------------|
-------------10--10--10--9--|--L--9--9--9---------------|
--9----9--9---8---8---8--7--|--L--7--7--7--12S----7S----|
--7----7--7-----------------|--------------10S----5S----|


  Q    E  E   E   E   E  E     E  E  E  E   Q     Q        Q.      Q.      
----------------------------|---------------------------|-----------------|
----------------------------|---------------------------|-----------------|
----------------------------|---------------------------|-----------------|
-------------10--10--10--9--|--L--9--9--9---------------|--4------10------|
--9----9--9---8---8---8--7--|--L--7--7--7--12S----7S----|--2-------8------|
--7----7--7-----------------|--------------10S----5S----|-----------------|


  E  E  E  E  E  E  E  E     Q.      Q.        E  E  E  E  E  E  E  E   
--------------------------|-----------------|--------------------------|
--------------------------|-----------------|--------------------------|
--------------------------|-----------------|--------------------------|
--------------------------|--4------10------|--------------------------|
--------------------------|--2-------8------|--------------------------|
--5--5--5--5--5--5--5--5--|-----------------|--5--5--5--5--5--5--5--5--|


  Q.      Q.        E  E  E  E  E  E  E  E     Q.      Q.      
-----------------|--------------------------|-----------------|
-----------------|--------------------------|-----------------|
-----------------|--------------------------|-----------------|
--4------10------|--------------------------|--4------10------|
--2-------8------|--------------------------|--2-------8------|
-----------------|--5--5--5--5--5--5--5--5--|-----------------|


  E  E  E  E  E  E  E  E     H         H           W                 
--------------------------|---------------------|-------------------|
--------------------------|---------------------|-------------------|
--------------------------|---------------------|-------------------|
--------------------------|---------------------|-------------------|
--------------------------|--9\-----------------|-------------------|
--5--5--5--5--5--5--5--5--|--7\-----------------|-------------------|


  W                 
-------------------|
-------------------|
-------------------|
-------------------|
-------------------|
-------------------|


             pick slide                                              
  Q    Q     T          T  T  T  T  T  T  T  T  T  T  T  T  T  T  T  
--------------------------------------------------------------------|
--------------------------------------------------------------------|
--------------------------------------------------------------------|
--------------------------------------------------------------------|
-------------5----------6--7--8--9-10-11-12-13-14-15-16-17-18-19-20-|
------------20\--------19-18-17-16-15-14-13-12-11-10--9--8--7--6--5-|


  Q    E  E   E   E   E  E     E  E  E  E   Q     Q      
----------------------------|---------------------------|
----------------------------|---------------------------|
----------------------------|---------------------------|
-------------10--10--10--9--|--L--9--9--9---------------|
--9----9--9---8---8---8--7--|--L--7--7--7--12S----7S----|
--7----7--7-----------------|--------------10S----5S----|


  Q    E  E   E   E   E  E     E  E  E  E   Q     Q      
----------------------------|---------------------------|
----------------------------|---------------------------|
----------------------------|---------------------------|
-------------10--10--10--9--|--L--9--9--9---------------|
--9----9--9---8---8---8--7--|--L--7--7--7--12S----7S----|
--7----7--7-----------------|--------------10S----5S----|


  Q    E  E   E   E   E  E     E  E  E  E   Q     Q      
----------------------------|---------------------------|
----------------------------|---------------------------|
----------------------------|---------------------------|
-------------10--10--10--9--|--L--9--9--9---------------|
--9----9--9---8---8---8--7--|--L--7--7--7--12S----7S----|
--7----7--7-----------------|--------------10S----5S----|


  Q    E  E   E   E   E  E     E  E  E  E   Q     Q      
----------------------------|---------------------------|
----------------------------|---------------------------|
----------------------------|---------------------------|
-------------10--10--10--9--|--L--9--9--9---------------|
--9----9--9---8---8---8--7--|--L--7--7--7--12S----7S----|
--7----7--7-----------------|--------------10S----5S----|


  Q    E  E   E   E   E  E     E  E  E  E   Q     Q      
----------------------------|---------------------------|
----------------------------|---------------------------|
----------------------------|---------------------------|
-------------10--10--10--9--|--L--9--9--9---------------|
--9----9--9---8---8---8--7--|--L--7--7--7--12S----7S----|
--7----7--7-----------------|--------------10S----5S----|


  Q    E  E   E   E   E  E     E  E  E  E   Q     Q      
----------------------------|---------------------------|
----------------------------|---------------------------|
----------------------------|---------------------------|
-------------10--10--10--9--|--L--9--9--9---------------|
--9----9--9---8---8---8--7--|--L--7--7--7--12S----7S----|
--7----7--7-----------------|--------------10S----5S----|


  Q    E  E   E   E   E  E     E  E  E  E   Q     Q      
----------------------------|---------------------------|
----------------------------|---------------------------|
----------------------------|---------------------------|
-------------10--10--10--9--|--L--9--9--9---------------|
--9----9--9---8---8---8--7--|--L--7--7--7--12S----7S----|
--7----7--7-----------------|--------------10S----5S----|


  Q    E  E   E   E   E  E     E  E  E  E   Q     Q      
----------------------------|---------------------------|
----------------------------|---------------------------|
----------------------------|---------------------------|
-------------10--10--10--9--|--L--9--9--9---------------|
--9----9--9---8---8---8--7--|--L--7--7--7--12S----7S----|
--7----7--7-----------------|--------------10S----5S----|


  Q    Q     Q     Q        E   E   E    Q     E   Q     
------------------------|-------------------------------|
------------------------|-------------------------------|
------------------------|-------------------------------|
--9----9----10----10----|-------------------------------|
--7----7-----8-----8----|--10--10--10S--11----11--11----|
------------------------|---8---8---8S---9-----9---9----|


  Q    Q     Q     Q        E   E   E    Q     E   Q     
------------------------|-------------------------------|
------------------------|-------------------------------|
------------------------|-------------------------------|
--9----9----10----10----|-------------------------------|
--7----7-----8-----8----|--10--10--10S--11----11--11----|
------------------------|---8---8---8S---9-----9---9----|


  E  E  Q      E   E   E   E      Q.      Q.      Q     
------------------------------|------------------------|
------------------------------|------------------------|
--9--9--9s----10--10--10--10--|------------------------|
--9--9--9s----10--10--10--10--|------------------------|
------------------------------|--10\-------------------|
------------------------------|-----------9~------L----|


                                 \2                    
  E  E  Q      E   E   E   E     Q    Q    Q     Q     
------------------------------|-----------------------|
------------------------------|-----------------------|
--9--9--9s----10--10--10--10--|-----------------------|
--9--9--9s----10--10--10--10--|-----------------------|
------------------------------|-----------------------|
------------------------------|--0----L----L-----L----|


  Q    E  E   E   E   E  E     E  E  E  E   Q     Q      
----------------------------|---------------------------|
----------------------------|---------------------------|
----------------------------|---------------------------|
-------------10--10--10--9--|--L--9--9--9---------------|
--9----9--9---8---8---8--7--|--L--7--7--7--12S----7S----|
--7----7--7-----------------|--------------10S----5S----|


  Q    E  E   E   E   E  E     E  E  E  E   Q     Q      
----------------------------|---------------------------|
----------------------------|---------------------------|
----------------------------|---------------------------|
-------------10--10--10--9--|--L--9--9--9---------------|
--9----9--9---8---8---8--7--|--L--7--7--7--12S----7S----|
--7----7--7-----------------|--------------10S----5S----|


  Q    E  E   E   E   E  E     E  E  E  E   Q     Q      
----------------------------|---------------------------|
----------------------------|---------------------------|
----------------------------|---------------------------|
-------------10--10--10--9--|--L--9--9--9---------------|
--9----9--9---8---8---8--7--|--L--7--7--7--12S----7S----|
--7----7--7-----------------|--------------10S----5S----|


  Q    E  E   E   E   E  E     E  E  E  E   Q     Q      
----------------------------|---------------------------|
----------------------------|---------------------------|
----------------------------|---------------------------|
-------------10--10--10--9--|--L--9--9--9---------------|
--9----9--9---8---8---8--7--|--L--7--7--7--12S----7S----|
--7----7--7-----------------|--------------10S----5S----|


  Q.      Q.      Q       H        H        Q    Q       Q    Q    Q    Q      
-----------------------|------------------------------|----------------------||
-----------------------|------------------------------|----------------------||
-----------------------|------------------------------|----------------------||
---------10\------L----|--L--------L--------L----L----|--L----L----L----L----||
--9-------8\------L----|--L--------L--------L----L----|--L----L----L----L----||
--7--------------------|------------------------------|----------------------||




Duration Legend
---------------
W - whole
H - half
Q - quarter
E - 8th
S - 16th
T - 32nd
X - 64th
. - note dotted
|-n-|  - n-tuplets


Tablature Legend
----------------
L - tied note
x - dead note
g - grace note
(n) - ghost note
> - accentuded note
NH - natural harmonic
AH - artificial harmonic
TH - tapped harmonic
SH - semi harmonic
PH - pitch harmonic
h - hammer on
p - pull off
b - bend
br - bendRelease
pb - preBend
pbr - preBendRelease
brb - bendReleaseBend
\n/ - tremolo bar dip
\n - tremolo bar dive
-/n - tremolo bar Release up
/n\ - tremolo bar inverted dip
/n - tremolo bar return
-\n - tremolo bar Release down
S - shift slide
s - legato slide
/ -  slide into from below or out of upwards
\ -  slide into from above or out of downwards
~ - vibrato
W - wide vibrato
tr - trill
TP - tremolo picking
T - tapping
S - slap
P - pop
< - fade in
^ - brush up
v - brush down





Comments


Popular Slayer tabs & chords
Clut Bass Tabs
Ddamm 1 Bass Tabs
Jesus Saves 1 Bass Tabs
Temptation Bass Tabs
Addict Tabs
Blood Line Correct Tabs
Evil Has No 1 Tabs
Final Command 1 Tabs
No Sleep Till Borrklyn Tabs
World Painted Blood Tabs


Song lyrics



↑ Back to top | Tablatures and chords are parodies/interpretations of the original songs. You may use it for private study, scholarship, research or language learning purposes only
© 2014 AZChords.com Contact us | Privacy policy | DMCA | Add/correct tabs | Request tabs | Top 50 tabs