>
 >
213 1

213 1 Guitar Tabs

Slayer - 213 1 chords, tabs, tablatures, lyrics

Guitar lessons | Add/correct | Request | Top 50 tabs Artists:  A B C D E F G H I J K L M N O P Q R S T U V W X Y Z 0-9

213 1 Guitar Tabs – Slayer

CD, Sheet music, Poster

Do you like 213 1? Share with your friends now
Bass TabsTabsTabs v2

213
As recorded by Slayer
(From the 1994 Album DIVINE INTERVENTION)

        

Words by Tom Araya & Jeff Hanneman Music by Jeff Hanneman

Gtr I (Eb Ab Db Gb Bb Eb) - 'Gtr. 1'
Gtr II (Eb Ab Db Gb Bb Eb) - 'Gtr. 2'
Gtr III (Eb Ab Db Gb Bb Eb) - 'Gtr. 3'
Gtr IV (Eb Ab Db Gb Bb Eb) - 'Gtr. 4'
Gtr V (Eb Ab Db Gb Bb Eb) - 'Acoustic'

   Intro
    Q=78
   4/4                                3/4          4/4
    Gtrs II, V
    E E E E E E E E   E E E E +H       +H.          E E E E E E E E
||--------0---------|-------0-(0)----|-(0)-------||-------0----------|
||o-----0---0-------|-----0----------|----------o||-----0---0--------|
||----3-------3---3-|---3------------|-----------||---3-------3---3--|
||--5-----------5---|-4--------------|-----------||-5-----------5----|
||o-----------------|----------------|----------o||------------------|
||------------------|----------------|-----------||------------------|


  E E E E E E E E   E E E E E E E E   E E E E E E E E   E E E E E E E E
|-------0---------|-------0---------|-------0---------|-------0---------|
|-----0---0-------|-----0---0-------|-----0---0-------|-----0---0-------|
|---3-------3---3-|---3-------3---3-|---3-------3---3-|---3-------3---3-|
|-4-----------4---|-3-----------3---|-2-----------2---|-1-----------1---|
|-----------------|-----------------|-----------------|-----------------|
|-----------------|-----------------|-----------------|-----------------|


                                    7/8               4/4
  E E E E +H       E E E E E E E E   E E E E +Q.       E  E E E E E E   E
|-------0-(0)----|-------0---------|-------0-(0)---||---------0-------------|
|-----0----------|-----0---0-------|-----0---------||o------0---0-----------|
|---3------------|---3-------3---3-|---3-----------||-----3-------3-----3---|
|-0--------------|-1-----------1---|-0-------------||--5------------5-------|
|----------------|-----------------|---------------||o----------------------|
|----------------|-----------------|---------------||-----------------------|
|
| Gtrs I, III
|                                                                   PM----|
| W                W                 W                 H.           S S S S
|----------------|-----------------|---------------||-----------------------|
|----------------|-----------------|---------------||o----------------------|
|----------------|-----------------|---------------||-----------------------|
|----------------|-----------------|---------------||--5------------5-5-5-5-|
|----------------|-----------------|---------------||o-5------------5-5-5-5-|
|----------------|-----------------|---------------||--3------------3-3-3-3-|


  E E E E E E E E  4x E E E E E E E E   E E E E E E E E   E E E E E E E E
|-------0----------||-------0-------0-|-------0-------0-|-------0-------0-|
|-----0---0-------o||-----0-------0---|-----0-------0---|-----0-------0---|
|---3-------3---3--||---3-------3-----|---3-------3-----|---3-------3-----|
|-4-----------4----||-1-------0-------|-----------------|-1-------0-------|
|-----------------o||-----------------|-2-------1-------|-----------------|
|------------------||-----------------|-----------------|-----------------|
|
| W                4x H       H         H       H         H       H
|------------------||-----------------|-----------------|-----------------|
|-----------------o||-----------------|-----------------|-----------------|
|------------------||-8-------7-------|-4-------3-------|-8-------7-------|
|-4----------------||-8-------7-------|-4-------3-------|-8-------7-------|
|-4---------------o||-6-------5-------|-2-------1-------|-6-------5-------|
|-2----------------||-----------------|-----------------|-----------------|


                  Q=90
  E E E E E E E E    W           W
|-------0-------0-||----------|---------------------|
|-----0-------0---||----------|---------------------|
|---3-------3-----||----------|---------------------|
|-----------------||----------|---------------------|
|-2-------1-------||----------|---------------------|
|-----------------||----------|---------------------|
|
| Gtr III
|                                       \1.5
| H       H          W          +H      H
|-----------------||----------|---------------------|
|-----------------||----------|---------------------|
|-4-------3-------||----------|---------0-----------|
|-4-------3-------||-2--------|-(2)-----------------|
|-2-------1-------||-2--------|-(2)-----------------|
|-----------------||-0--------|-(0)-----------------|
|
| Gtr I
| H       H          W          +H     +E.   S  Q
|-----------------||----------|---------------------|
|-----------------||----------|---------------------|
|-4-------3-------||----------|---------------------|
|-4-------3-------||----------|---------------------|
|-2-------1-------||-2--------|-(2)----(2)----------|
|-----------------||-0--------|-(0)----(0)---2s19\--|


    Gtr III
    H                     H
||----------------------------------------------|
||o---------------------------------------------|
||----------------------------------------------|
||--2---------------------3---------------------|
||o-2---------------------3---------------------|
||--0---------------------1---------------------|
|
|   Gtr I
|   S T T S S S T T T T S S T T S S S T T T T S
||----------------------------------------------|
||o---------------------------------------------|
||----------------------------------------------|
||--5-------1-3-1p0-------5-------1-3-1p0-------|
||o---1h3-5---------3p1p0---1h3-5---------3p1p0-|
||----------------------------------------------|


  H                     Q         Q
|----------------------------------------------||
|---------------------------------------------o||
|----------------------------------------------||
|-2---------------------5---------3------------||
|-2---------------------5---------3-----------o||
|-0---------------------3---------1------------||
|
| S T T S S S T T T T S S T T S S S T T T T S
|----------------------------------------------||
|---------------------------------------------o||
|----------------------------------------------||
|-5-------1-3-1p0-------5-------1-3-1p0--------||
|---1h3-5---------3p1p0---1h3-5---------3p1p0-o||
|----------------------------------------------||


    H                     H
||----------------------------------------------|
||o---------------------------------------------|
||------------------------3---------------------|
||--2---------------------3---------------------|
||o-2---------------------1---------------------|
||--0-------------------------------------------|
|
|   S T T S S S T T T T S S T T S S S T T T T S
||----------------------------------------------|
||o---------------------------------------------|
||----------------------------------------------|
||--5-------1-3-1p0-------5-------1-3-1p0-------|
||o---1h3-5---------3p1p0---1h3-5---------3p1p0-|
||----------------------------------------------|


                                                  Q=144
  H                     Q         Q                   E E E E E E E E
|----------------------------------------------||-||------------------|
|---------------------------------------------o||-||o-----------------|
|----------------------------------------------||-||------------------|
|-2---------------------5---------3------------||-||------------------|
|-2---------------------5---------3-----------o||-||o-----4---3-----3-|
|-0---------------------3---------1------------||-||--2-2---2---2-2---|
|
| S T T S S S T T T T S S T T S S S T T T T S         E E E E E E E E
|----------------------------------------------||-||------------------|
|---------------------------------------------o||-||o-----------------|
|----------------------------------------------||-||------------------|
|-5-------1-3-1p0-------5-------1-3-1p0--------||-||------------------|
|---1h3-5---------3p1p0---1h3-5---------3p1p0-o||-||o-----4---3-----3-|
|----------------------------------------------||-||--2-2---2---2-2---|


                   3/4                           4/4
  Gtrs I, III
                                  PM------|
  E E E E E E E E   E E E E E E   S S E E E E E   E E E E E E E E
|-----------------|-------------|---------------|-----------------|
|-----------------|-------------|---------------|-----------------|
|-----------------|-------------|---------------|-----------------|
|-----------------|-------------|---------------|-----------------|
|-----4---4---3---|---3-----4---|-----------4---|-3-----3-----4---|
|-2-2---2---2---2-|-2---2-2---2-|-3-2-0-2-3---2-|---2-2---2-2---2-|


                                               Verse
 5/4                   4/4
                        PM----------------|         PM------------|
  E E E E E E E E E E   S S E E E S S E E E     E E E E E E S S S S
|---------------------|----------------------||---------------------|
|---------------------|---------------------o||---------------------|
|---------------------|----------------------||---------------------|
|---------------------|----------------------||---------------------|
|-4---3-----3-----4---|---------------------o||-3-2-----------------|
|---2---2-2---2-2---2-|-3-2-0-2-3-3-2-0-2-3--||-1-0-0-0-0-0-0-0-0-0-|


      PM--|     PM----|       PM------------|       PM|
  E E E S S E E S S S S   E E E E E E S S S S   E E S S E E E Q
|-----------------------|---------------------|-------------------|
|-----------------------|---------------------|-------------------|
|-----------------------|---------------------|-------------------|
|-----------------------|---------------------|-----------2-5-4\--|
|-3-2-------2-3---------|-3-2-----------------|-3-2-----4---------|
|-1-0-0-0-0-0-1-1-1-1-1-|-1-0-0-0-0-0-0-0-0-0-|-3-0-0-0---3-------|


      PM------------|       PM--|     PM----|       PM------------|
  E E E E E E S S S S   E E E S S E E S S S S   E E E E E E S S S S
|---------------------|-----------------------|----------------------|
|---------------------|-----------------------|----------------------|
|---------------------|-----------------------|----------------------|
|---------------------|-----------------------|----------------------|
|-3-2-----------------|-3-2-------2-3---------|-3-2------------------|
|-1-0-0-0-0-0-0-0-0-0-|-1-0-0-0-0-0-1-1-1-1-1-|-1-0-0-0-0-0-0-0-0-0--|


      PM|                 PM------------|       PM--|     PM----|
  E E S S E E E Q     E E E E E E S S S S   E E E S S E E S S S S
|-------------------|---------------------|-----------------------|
|-------------------|---------------------|-----------------------|
|-------------------|---------------------|-----------------------|
|-----------2-5-4\--|---------------------|-----------------------|
|-3-2-----4---------|-3-2-----------------|-3-2-------2-3---------|
|-3-0-0-0---3-------|-1-0-0-0-0-0-0-0-0-0-|-1-0-0-0-0-0-1-1-1-1-1-|


      PM------------|       PM|                 PM------------|
  E E E E E E S S S S   E E S S E E E Q     E E E E E E S S S S
|---------------------|-------------------|---------------------|
|---------------------|-------------------|---------------------|
|---------------------|-------------------|---------------------|
|---------------------|-----------2-5-4\--|---------------------|
|-3-2-----------------|-3-2-----4---------|-3-2-----------------|
|-1-0-0-0-0-0-0-0-0-0-|-3-0-0-0---3-------|-1-0-0-0-0-0-0-0-0-0-|


                                                                   1/4
      PM--|     PM----|       PM------------|       PM|
  E E E S S E E S S S S   E E E E E E S S S S   E E S S E E E Q     E E
|-----------------------|---------------------|-------------------|-----||
|-----------------------|---------------------|-------------------|-----||
|-----------------------|---------------------|-------------------|-----||
|-----------------------|---------------------|-----------2-5-4\--|-----||
|-3-2-------2-3---------|-3-2-----------------|-3-2-----4---------|-----||
|-1-0-0-0-0-0-1-1-1-1-1-|-1-0-0-0-0-0-0-0-0-0-|-3-0-0-0---3-------|-2-2-||


 Chorus
 5/4                  3/4           5/4                  3/4
                       PM--------|                        PM--------|
  E E E E E E E E Q    E E E E E E   E E E E E E E E Q    E E E E E E
|--------------------|-------------|--------------------|-------------|
|--------------------|-------------|--------------------|-------------|
|--------------------|-------------|--------------------|-------------|
|--------------------|-------------|--------------------|-------------|
|-5-----4---------3--|-6-6-6-6-6-6-|-5-----4---------3--|-4-2-5-4-2-4-|
|---2-2---2-2-5-5----|-4-4-4-4-4-4-|---2-2---2-2-5-5----|-2-0-3-2-0-2-|


 5/4                  3/4           5/4                  3/4
                       PM--------|                        PM--------|
  E E E E E E E E Q    E E E E E E   E E E E E E E E Q    E E E E E E
|--------------------|-------------|--------------------|-------------||
|--------------------|-------------|--------------------|-------------||
|--------------------|-------------|--------------------|-------------||
|--------------------|-------------|--------------------|-------------||
|-5-----4---------3--|-5-5-5-5-5-5-|-5-----4---------3--|-4-2-5-4-2-4-||
|---2-2---2-2-5-5----|-3-3-3-3-3-3-|---2-2---2-2-5-5----|-2-0-3-2-0-2-||


 Verse
 4/4
      PM------------|       PM--|     PM----|       PM------------|
  E E E E E E S S S S   E E E S S E E S S S S   E E E E E E S S S S
|---------------------|-----------------------|---------------------|
|---------------------|-----------------------|---------------------|
|---------------------|-----------------------|---------------------|
|---------------------|-----------------------|---------------------|
|-3-2-----------------|-3-2-------2-3---------|-3-2-----------------|
|-1-0-0-0-0-0-0-0-0-0-|-1-0-0-0-0-0-1-1-1-1-1-|-1-0-0-0-0-0-0-0-0-0-|


      PM|                 PM------------|       PM--|     PM----|
  E E S S E E E Q     E E E E E E S S S S   E E E S S E E S S S S
|-------------------|---------------------|-----------------------|
|-------------------|---------------------|-----------------------|
|-------------------|---------------------|-----------------------|
|-----------2-5-4\--|---------------------|-----------------------|
|-3-2-----4---------|-3-2-----------------|-3-2-------2-3---------|
|-3-0-0-0---3-------|-1-0-0-0-0-0-0-0-0-0-|-1-0-0-0-0-0-1-1-1-1-1-|


      PM------------|       PM|                 PM------------|
  E E E E E E S S S S   E E S S E E E Q     E E E E E E S S S S
|---------------------|-------------------|---------------------|
|---------------------|-------------------|---------------------|
|---------------------|-------------------|---------------------|
|---------------------|-----------2-5-4\--|---------------------|
|-3-2-----------------|-3-2-----4---------|-3-2-----------------|
|-1-0-0-0-0-0-0-0-0-0-|-3-0-0-0---3-------|-1-0-0-0-0-0-0-0-0-0-|


      PM--|     PM----|       PM------------|       PM|
  E E E S S E E S S S S   E E E E E E S S S S   E E S S E E E Q
|-----------------------|---------------------|-------------------|
|-----------------------|---------------------|-------------------|
|-----------------------|---------------------|-------------------|
|-----------------------|---------------------|-----------2-5-4\--|
|-3-2-------2-3---------|-3-2-----------------|-3-2-----4---------|
|-1-0-0-0-0-0-1-1-1-1-1-|-1-0-0-0-0-0-0-0-0-0-|-3-0-0-0---3-------|


      PM------------|       PM--|     PM----|       PM------------|
  E E E E E E S S S S   E E E S S E E S S S S   E E E E E E S S S S
|---------------------|-----------------------|----------------------|
|---------------------|-----------------------|----------------------|
|---------------------|-----------------------|----------------------|
|---------------------|-----------------------|----------------------|
|-3-2-----------------|-3-2-------2-3---------|-3-2------------------|
|-1-0-0-0-0-0-0-0-0-0-|-1-0-0-0-0-0-1-1-1-1-1-|-1-0-0-0-0-0-0-0-0-0--|


                            Chorus
                     1/4    5/4
      PM|
  E E S S E E E Q     E E    E E E E E E E E Q
|-------------------|-----||--------------------|
|-------------------|-----||--------------------|
|-------------------|-----||--------------------|
|-----------2-5-4\--|-----||--------------------|
|-3-2-----4---------|-----||-5-----4---------3--|
|-3-0-0-0---3-------|-2-2-||---2-2---2-2-5-5----|


 3/4           5/4
  PM--------|
  E E E E E E   E E E E E E E E Q
|-------------|----------------------|
|-------------|----------------------|
|-------------|----------------------|
|-------------|----------------------|
|-6-6-6-6-6-6-|-5-----4---------3----|
|-4-4-4-4-4-4-|---2-2---2-2-5-5------|


 3/4           5/4                  3/4           4/4
  PM--------|                        PM--------|
  E E E E E E   E E E E E E E E Q    E E E E E E   E E E E E E E E
|-------------|--------------------|-------------|-----------------|
|-------------|--------------------|-------------|-----------------|
|-------------|--------------------|-------------|-----------------|
|-------------|--------------------|-------------|-----------------|
|-4-2-5-4-2-4-|-5-----4---------3--|-5-5-5-5-5-5-|-5-----4---------|
|-2-0-3-2-0-2-|---2-2---2-2-5-5----|-3-3-3-3-3-3-|---2-2---2-2-5-5-|


                     5/4
  PM----------------------------------|
  S S E E E E E E E   S S E E E S S E Q  Q
|-------------------|-----------------------||
|-------------------|-----------------------||
|-------------------|-----------------------||
|-------------------|-----------------------||
|-------------------|-----------------4-----||
|-3-2-0-2-3-0-5-3-0-|-3-2-0-2-3-3-2-0-2-----||


 Bridge
 4/4
  E E E E E E E E   Q  E E E E E E
|-----------------|----------------|
|-----------------|----------------|
|-----------------|----------------|
|-----------------|----------------|
|-2-----1---------|----1---1---1---|
|---0-0---0-0-2-2-|-3----3---3---3-|


                       PM--------|
  E E E E E E E E   Q  E E E E E E   E E E E E E E E   Q  E E E E E E
|-----------------|----------------|-----------------|----------------|
|-----------------|----------------|-----------------|----------------|
|-----------------|----------------|-----------------|----------------|
|-----------------|----------------|-----------------|----------------|
|-2-----1---------|----4-2-5-4-2-4-|-2-----1---------|----1---1---1---|
|---0-0---0-0-2-2-|-3--2-0-3-2-0-2-|---0-0---0-0-2-2-|-3----3---3---3-|


                                     Guitar Solo
                                   Q=156
  Gtr IV
                                       ~~~~~~~~~~~~~
  W                 W                  Q.     E +H
|-----------------|----------------||-------------------------|
|-----------------|----------------||-------------------------|
|-----------------|----------------||-[3]-----3-(3)-----------|
|-----------------|----------------||-------------------------|
|-----------------|----------------||-------------------------|
|-----------------|----------------||-------------------------|
|
| Gtrs I, III
|                      PM--------|          PM--------------|
| E E E E E E E E   Q  E E E E E E     E  E E E  E  E S S S S
|-----------------|----------------||-------------------------|
|-----------------|----------------||-------------------------|
|-----------------|----------------||-------------------------|
|-----------------|----------------||--3--2-------------------|
|-2-----1---------|----4-2-5-4-2-4-||--3--2-------------------|
|---0-0---0-0-2-2-|-3--2-0-3-2-0-2-||--1--0-0-0--0--0-0-0-0-0-|


   |--------3--------|
   Q        +Q      +Q         +Q      +Q
|----------------------------------------------------|
|----------------------------------------------------|
|-[3]b4====([3])r==([3])b4====([3])r==([3])b4========|
|----------------------------------------------------|
|----------------------------------------------------|
|----------------------------------------------------|
|
|                PM--------------------------------|
|  E     E       E          E   E   E   S      S S S
|----------------------------------------------------|
|----------------------------------------------------|
|----------------------------------------------------|
|--3-----2-------------------------------------------|
|--3-----2-------------------------------------------|
|--1-----0-------0----------0---0---0---0------0-0-0-|


                       |---3---|
   +Q.         E   E E E   E   E
|----------------------------------|
|----------------------------------|
|-([3])r-------3---2-3-5p==3p==2---|
|----------------------------------|
|----------------------------------|
|----------------------------------|
|
|          PM----|     PM--------|
|   E    E S S S S E E S S   S   S
|----------------------------------|
|----------------------------------|
|----------------------------------|
|---3----2---------5-3-------------|
|---3----2---------5-3-------------|
|---1----0-0-0-0-0-3-1-1-1---1---1-|


                        ~               ~~~~~~~~~
  |-3-| |-3-|
  S S S S S S S S S T T H             S E.   +Q     Q.       S S
|-----------------------------------|----------------------------|
|-----------------------------------|----------------------------|
|-5p3p2-----------------------------|----------------------------|
|-------5p3p2-3-5-3-2---------------|--------------[8]-----------|
|---------------------5-4-----------|-4s7----(7)-------------7h8-|
|-----------------------------------|----------------------------|
|
|             PM------------------|           PM---------------|
| E     E     E   E     E E S S S S   E    E  E  E  E  E S S S S
|-----------------------------------|----------------------------|
|-----------------------------------|----------------------------|
|-----------------------------------|----------------------------|
|-3-----2---------------------------|-3----2---------------------|
|-3-----2---------------------------|-3----2---------------------|
|-1-----0-----0---0-----0-0-0-0-0-0-|-1----0--0--0--0--0-0-0-0-0-|


  ~                                     ~~
  H        H               H            H
|-----------------------|---------------------------|
|-----------------------|---------------------------|
|-----------------------|-11-----------10-----------|
|-9-------[8]-----------|---------------------------|
|-----------------------|---------------------------|
|-----------------------|---------------------------|
|
|     PM--------------|        PM----|      PM----|
| E E E E  E  E S S S S    E E S S S S  E E S S S S
|-----------------------|---------------------------|
|-----------------------|---------------------------|
|-----------------------|---------------------------|
|-3-2-------------------|--3-2----------5-3---------|
|-3-2-------------------|--3-2----------5-3---------|
|-1-0-0-0--0--0-0-0-0-0-|--1-0-0-0-0-0--3-1-0-0-0-0-|


            ~~~~~~~~~~
   H        Q    +E.     S
|-----------------------18-||
|-13-------12---(12)/------||
|--------------------------||
|--------------------------||
|--------------------------||
|--------------------------||
|
|      PM-------------|
|  E E E E  E E   E   E
|--------------------------||
|--------------------------||
|--------------------------||
|--3-2---------------------||
|--3-2---------------------||
|--1-0-0-0--0-0---0---0----||


                    ~~~~~~~~~~~~~~~~~~~~~~~~~~~~~~~~
                                   |----3----|         |---3---|
   Q        +Q      H              Q    Q    Q    Q    S  S    S  S  S
|-19b21====(19)r---19-----------|-19---19---19---19---19-19---19-16-16-|
|-------------------------------|--------------------------------------|
|-------------------------------|--------------------------------------|
|-------------------------------|--------------------------------------|
|-------------------------------|--------------------------------------|
|-------------------------------|--------------------------------------|
|
|            PM---------------|           PM------------------------|
|  E     E   E   E  E E S S S S    E E    E    E  E E  S    S     S  S
|-------------------------------|--------------------------------------|
|-------------------------------|--------------------------------------|
|-------------------------------|--------------------------------------|
|--5-----4----------------------|--5-4---------------------------------|
|--5-----4----------------------|--5-4---------------------------------|
|--3-----2---2---2--2-2-2-2-2-2-|--3-2----2----2--2-2--2----2-----2--2-|


   |--3--|  |--3--|  |---3---|  |---3---|  |--3--|  |--3--|  |---3---|  |---3---|
   S  S  S  S  S  S  S  S    S  S  S    S  S  S  S  S  S  S  S  S    S  S  S    S
|-17-17-16-16-17-17-19-19---17-17-16---16-----------------------------------------|
|-----------------------------------------20-18-17-17-18-18-20-20---18-18-17---17-|
|---------------------------------------------------------------------------------|
|---------------------------------------------------------------------------------|
|---------------------------------------------------------------------------------|
|---------------------------------------------------------------------------------|
|
|                    PM--------------|                       PM--------------|
|  E        E        S    S     S    S     E        E        S    S     S    S
|---------------------------------------------------------------------------------|
|---------------------------------------------------------------------------------|
|---------------------------------------------------------------------------------|
|--5--------4------------------------------7--------5-----------------------------|
|--5--------4------------------------------7--------5-----------------------------|
|--3--------2--------2----2-----2----2-----5--------3--------3----3-----3----3----|


   |--3--|  |--3--|
   S  S  S  S  S  S  Q    +H
|----------------------------------------|
|----------------------------------------|
|-19-19-17-17-16-16-16---(16)\-----------|
|----------------------------------------|
|----------------------------------------|
|----------------------------------------|
|
|                    PM----------------|
|  E        E        E E   E   E S S S S
|----------------------------------------|
|----------------------------------------|
|----------------------------------------|
|--5--------3----------------------------|
|--5--------3----------------------------|
|--3--------1--------2-2---2---2-2-2-2-2-|


                     ~~                                   ~~
    Q        +Q      Q    +Q             Q        +Q      Q    +Q
|------------------------------------|------------------------------------|
|-/19b20====(19)r---19---(19)\-------|-/19b20====(19)r---19---(19)\-------|
|------------------------------------|------------------------------------|
|------------------------------------|------------------------------------|
|------------------------------------|------------------------------------|
|------------------------------------|------------------------------------|
|
|             PM-------------------|               PM-------------------|
|   E     E   E   E  E E   S   S S S     E     E   E   E  E E   S   S S S
|------------------------------------|------------------------------------|
|------------------------------------|------------------------------------|
|------------------------------------|------------------------------------|
|---5-----4--------------------------|---5-----4--------------------------|
|---5-----4--------------------------|---5-----4--------------------------|
|---3-----2---2---2--2-2---2---2-2-2-|---3-----2---2---2--2-2---2---2-2-2-|


    Q        +Q            Q        +Q
|-----------------------------------------------|
|-/19b21====(19)r\-------/19b22====(19)r\-------|
|-----------------------------------------------|
|-----------------------------------------------|
|-----------------------------------------------|
|-----------------------------------------------|
|
|             PM-------|             PM-------|
|   E     E   S    S S S   E     E   S    S S S
|-----------------------------------------------|
|-----------------------------------------------|
|-----------------------------------------------|
|---5-----4----------------7-----5--------------|
|---5-----4----------------7-----5--------------|
|---3-----2---2----2-2-2---5-----3---3----3-3-3-|


                                  Bridge
  H.=H                          Q=144
                         \7
    Q    E        E  +E  Q.        +E   Q.      +H
|-------------------------------||-------------------------|
|-/19---19b19.5==19r(19)--------||-------------------------|
|------------------------0------||-(0)-<4>-----(<4>)-------|
|-------------------------------||-------------------------|
|-------------------------------||-------------------------|
|-------------------------------||-------------------------|
|
|        PM-------------------|
|   E E  E        E   E  E  E E     E   E  E E   E   E E E
|-------------------------------||-------------------------|
|-------------------------------||-------------------------|
|-------------------------------||-------------------------|
|---5-4-------------------------||-------------------------|
|---5-4-------------------------||--2--------1-------------|
|---3-2--2--------2---2--2--2-2-||------0--0-----0---0-2-2-|


  W                W                 W
|----------------|-----------------|-----------------|
|----------------|-----------------|-----------------|
|----------------|-----------------|-----------------|
|----------------|-----------------|-----------------|
|----------------|-----------------|-----------------|
|----------------|-----------------|-----------------|
|
|                                       PM--------|
| Q  E E E E E E   E E E E E E E E   Q  E E E E E E
|----------------|-----------------|-----------------|
|----------------|-----------------|-----------------|
|----------------|-----------------|-----------------|
|----------------|-----------------|-----------------|
|----1---1---1---|-2-----1---------|----4-2-5-4-2-4--|
|-3----3---3---3-|---0-0---0-0-2-2-|-3--2-0-3-2-0-2--|


 4/4
  Gtrs I, III
  E E E E E E E E   Q  E E E E E E   E E E E E E E E
|-----------------|----------------|-----------------|
|-----------------|----------------|-----------------|
|-----------------|----------------|-----------------|
|-----------------|----------------|-----------------|
|-2-----1---------|----1---1---1---|-2-----1---------|
|---0-0---0-0-2-2-|-3----3---3---3-|---0-0---0-0-2-2-|


  PM----------------------------------|
  S S E E E E E E E   S S E E E E E E E
|-------------------|----------------------|
|-------------------|----------------------|
|-------------------|----------------------|
|-------------------|----------------------|
|-------------------|----------------------|
|-3-2-0-2-3-0-5-3-0-|-3-2-0-2-3-0-3-1-0----|


  PM------------------------------------------------------|
  S S E E E E E E E   S S E E E E E E E   S S E E E E E E E
|-------------------|-------------------|-------------------|
|-------------------|-------------------|-------------------|
|-------------------|-------------------|-------------------|
|-------------------|-------------2-----|-------------------|
|-------------------|-------------2---1-|-------------------|
|-3-2-0-2-3-0-5-3-0-|-3-2-0-2-3-0---0---|-3-2-0-2-3-0-5-3-0-|


  PM-------------------------------------
  S S E E E E E E E   S S E E E E E E E
|-------------------|-------------------|
|-------------------|-------------------|
|-------------------|-------------------|
|-------------------|-------------------|
|-------------------|-------------------|
|-3-2-0-2-3-0-3-1-0-|-3-2-0-2-3-0-5-3-0-|


                      Outro
 -----------------|
  S S E E E E E E E    E E E E E E E E
|-------------------||------------------|
|-------------------||------------------|
|-------------------||------------------|
|-------------------||------------------|
|-------------------||-----4---3-----3--|
|-3-2-0-2-3-0-3-1-0-||-2-2---2---2-2----|


                   3/4                           4/4
                                  PM------|
  E E E E E E E E   E E E E E E   S S E E E E E   E E E E E E E E
|-----------------|-------------|---------------|-----------------|
|-----------------|-------------|---------------|-----------------|
|-----------------|-------------|---------------|-----------------|
|-----------------|-------------|---------------|-----------------|
|-----4---4---3---|---3-----4---|-----------4---|-3-----3-----4---|
|-2-2---2---2---2-|-2---2-2---2-|-3-2-0-2-3---2-|---2-2---2-2---2-|


 5/4                   4/4
                        PM----------------|
  E E E E E E E E E E   S S E E E S S E E E
|---------------------|---------------------|
|---------------------|---------------------|
|---------------------|---------------------|
|---------------------|---------------------|
|-4---3-----3-----4---|---------------------|
|---2---2-2---2-2---2-|-3-2-0-2-3-3-2-0-2-3-|


  E E E E E E E E   E E E E E E E E
|-----------------|-------------------|
|-----------------|-------------------|
|-----------------|-------------------|
|-----------------|-------------------|
|-----4---3-----3-|-----4---4---3-----|
|-2-2---2---2-2---|-2-2---2---2---2---|


 3/4                           4/4               5/4
                PM------|
  E E E E E E   S S E E E E E   E E E E E E E E   E E E E E E E E E E
|-------------|---------------|-----------------|----------------------|
|-------------|---------------|-----------------|----------------------|
|-------------|---------------|-----------------|----------------------|
|-------------|---------------|-----------------|----------------------|
|---3-----4---|-----------4---|-3-----3-----4---|-4---3-----3-----4----|
|-2---2-2---2-|-3-2-0-2-3---2-|---2-2---2-2---2-|---2---2-2---2-2---2--|


 6/4
  PM--------------------------|
  S S E E E S S E E E S S E E E
|-------------------------------*|
|-------------------------------*|
|-------------------------------*|
|-------------------------------*|
|-------------------------------*|
|-3-2-0-2-3-3-2-0-2-3-3-2-0-2-3-*|



Duration Legend
---------------
W - whole; H - half; Q - quarter; E - 8th; S - 16th; T - 32nd; X - 64th; a - acciaccatura
+ - note tied to previous; . - note dotted; .. - note double dotted
Uncapitalized letters represent notes that are staccato (1/2 duration)
Irregular groupings are notated above the duration line
Duration letters will always appear directly above the note/fret number it represents the
duration for.  Duration letters with no fret number below them represent rests.  Multi-
bar rests are notated in the form Wxn, where n is the number of bars to rest for.  Low
melody durations appear below the staff

Tablature Legend
----------------
 h   - hammer-on
 p   - pull-off
 b   - bend
 pb  - pre-bend
 r   - bend release (if no number after the r, then release immediately)
 /\  - slide into or out of (from/to "nowhere")
 s   - legato slide
 S   - shift slide
 - natural harmonic
[n]  - artificial harmonic
n(n) - tapped harmonic
 ~   - vibrato
 tr  - trill
 T   - tap
 TP  - trem. picking
 PM  - palm muting
\n/  - tremolo bar dip; n = amount to dip
 \n  - tremolo bar down
 n/  - tremolo bar up
/n\  - tremolo bar inverted dip
 =   - hold bend; also acts as connecting device for hammers/pulls
 <> - volume swell (louder/softer)
 x   - on rhythm slash represents muted slash
 o   - on rhythm slash represents single note slash

Misc Legend
-----------
 |  - bar
||  - double bar
||o - repeat start
o|| - repeat end
*|  - double bar (ending)
 :  - bar (freetime)
 $  - Segno
 &  - Coda
Tempo markers -  = BPM(8/16=s8/s16), where s8 = swing 8ths, s16 = swing 16ths





Comments


Popular Slayer tabs & chords
Chemical Warfare Drum Tabs
Blood Line Correct Tabs
Dittohead Tabs
Gemini Tabs
In The Name Of God 2 Tabs
Memories Of Tomorrow Tabs
Postmortem 1 Tabs
Raining Blood 3 Tabs
Strain Of Mind 2 Tabs
The Antichrist Tabs


Song lyrics



↑ Back to top | Tablatures and chords are parodies/interpretations of the original songs. You may use it for private study, scholarship, research or language learning purposes only
© 2014 AZChords.com Contact us | Privacy policy | DMCA | Add/correct tabs | Request tabs | Top 50 tabs