» » »

Sisters Of Mercy, Anaconda Bass tabs (ver.1)

Artists:  A B C D E F G H I J K L M N O P Q R S T U V W X Y Z # 

Anaconda Bass tabs (ver.1)

Sisters Of Mercy Tabs
 Rating:
4/5 (4 votes)
Anaconda lessons Tabs too difficult? Try these video lessons and learn fast
1
                
Song Structure:
Riff 1 = Intro

Riff 2
Riff 3
Riff 2
Riff 4 = Verse

Riff 2
Riff 3
Riff 2
Riff 3
Riff 2
Riff 4 = Extended Verse

Riff 5
Riff 6
Riff 5
Riff 6 = Chorus

Riff 7
Riff 8 = Outro

Order:
|| Intro | Verse | Chorus | Verse | Verse | Verse | Chorus | 
              
             | Extended Verse | Chorus | Outro ||

Riff 1:
G|----------
D|----------
A|-22222222-
E|----------


Riff 2:
G|------------------------------------------------------
D|------------------------------------------------------
A|-2--0-2--0-2-0--2--0-2--0-2-0--2--0-2--0-2-0--5--7--8-
E|------------------------------------------------------


Riff 3:
G|------------------------------------------------------
D|------------------------------------------------------
A|-2--0-2--0-2-0--2--0-2--0-2-0--2--0-2--0-2-0--8--7--5-
E|------------------------------------------------------


Riff 4:
G|-------------------------------------------------------
D|-------------------------------------------------------
A|-2--0-2--0-2-0--2--0-2--0-2-0--2--0-2--0-2-0--22222222-
E|-------------------------------------------------------


Riff 5:
G|-----------------------------------------------------------------
D|---------------------------------9-9-9-9-9-9-9-9-9-9-9-9-9-9-7---
A|-7-7-7-7-7-7-7-7-5-5-5-5-5-5-5-5/------------------------------9-
E|-----------------------------------------------------------------

Riff 6:
G|-----------------------------------------------------------------
D|-----------------------------------------------------------------
A|-7-7-7-7-7-7-7-7-5-5-5-5-5-5-5-5-2-2-2-2-2-2-2-2-2-2-2-2-2-2-2-2-
E|-----------------------------------------------------------------

Riff 7:
G|-------------
D|-------------
A|-7----5----2-
E|-------------

Riff 8:
G|-------------
D|-------------
A|-7----5----7-
E|-------------
            
Submit corrections

comments powered by Disqus
↑ Back to top | Sisters Of Mercy Bass for Anaconda. Lyrics for acoustic guitar and electric guitar. 1 Tablatures and chords are parodies/interpretations of the original songs. You may use it for private study, scholarship, research or language learning purposes only