» » »

Sisters Of Mercy, Anaconda Bass tabs (ver.2)

Artists:  A B C D E F G H I J K L M N O P Q R S T U V W X Y Z # 

Anaconda Bass tabs (ver.2)

Sisters Of Mercy Tabs
Rating:
0/5 (0 votes)
Anaconda lessons Tabs too difficult? Try these video lessons and learn fast
                "Anaconda" by The Sisters of Mercy (from the album "Some Girls Wander by Mistake")



Riff 1:

G|-----------------
D|-----------------
A|-2-2-2-2-2-2-2-2-
E|-----------------


Riff 2:

G|-----------------------------------------------------------------
D|-----------------------------------------------------------------
A|-2---0-2---0-2-0---2---0-2---0-2-0---2---0-2---0-2-0---5---7---8-
E|-----------------------------------------------------------------


Riff 3:

G|-----------------------------------------------------------------
D|-----------------------------------------------------------------
A|-2---0-2---0-2-0---2---0-2---0-2-0---2---0-2---0-2-0---8---7---5-
E|-----------------------------------------------------------------


Riff 4:

G|-----------------------------------------------------------------------
D|-----------------------------------------------------------------------
A|-2---0-2---0-2-0---2---0-2---0-2-0---2---0-2---0-2-0---2-2-2-2-2-2-2-2-
E|-----------------------------------------------------------------------


Riff 5:

G|-----------------------------------------------------------------
D|---------------------------------9-9-9-9-9-9-9-9-9-9-9-9-9-9-7---
A|-7-7-7-7-7-7-7-7-5-5-5-5-5-5-5-5/------------------------------9-
E|-----------------------------------------------------------------

or

G|------------------------------------------------------------------
D|------------------------------------------------------------------
A|-7-7-7-7-7-7-7-7-5-5-5-5-5-5-5-5-14-14-14-14-14-14-14-14-14-14-14-
E|------------------------------------------------------------------

G|----------------
D|----------------
A|-14-14-14-14-14\
E|----------------


Riff 6:

G|-----------------------------------------------------------------
D|-----------------------------------------------------------------
A|-7-7-7-7-7-7-7-7-5-5-5-5-5-5-5-5-2-2-2-2-2-2-2-2-2-2-2-2-2-2-2-2-
E|-----------------------------------------------------------------


Riff 7:

G|-----------------------------------
D|-----------------------------------
A|-7---------------5---------------2-
E|-----------------------------------


Riff 8:

G|-----------------------------------
D|-----------------------------------
A|-7---------------5---------------7-
E|-----------------------------------



                            How to play it
                            --------------

               |  Verse    |  Chorus   |           |           |
    Bass:   1  |  2 3 2 4  |  5 6 5 6  |  2 3 2 4  |  2 3 2 4  |
               |           |           |           |           |

            Verse    |  Chorus   |      Verse    |  Chorus   |
    Bass:   2 3 2 4  |  5 6 5 6  |  2 3 2 3 2 4  |  5 6 5 6  |  7 8
                     |           |               |           |



                                Notes
                                -----

When playing the alternate bass riff #5, be sure that the slide down
            
Submit corrections

comments powered by Disqus
↑ Back to top | Sisters Of Mercy Bass for Anaconda. Lyrics for acoustic guitar and electric guitar. Tablatures and chords are parodies/interpretations of the original songs. You may use it for private study, scholarship, research or language learning purposes only