» » »

Lazy Eye Tabs (ver.2)

Artists:  A B C D E F G H I J K L M N O P Q R S T U V W X Y Z # 

Lazy Eye Tabs (ver.2)

Silversun Pickups
Rating:
0/5 (0 votes)

Hard to play? Try these video lessons and learn fast.
                submited by: hackysackdude

Lazy Eye by Silversun Pickups

first off, this is my first tab, but it sounds 100% correct. this is an updated version 
how it is played on the letterman show but the approx. timings are from the cd...TUNE 
GUITAR before you give me a bad rating!!thanks:]

the main riff IS played with strumming, with emphasis on the "a" string...
u can either slide or bend on the 11th fret...

here are the main parts played...along with the solos...
for the complete timings scroll down..

MAIN RIFF
e]----------------------------------------------|
b]----------------------------------------------|
g]----------------------------------------------|
d]----------------------------------------------|
a]-11-11-11-11-11-11-11-11-9-9-9-11-11-11/12\11-|
e]-0--0--0--0--0--0--0--0--0-0-0-0--0--0--------|

e]----------------------------------------------|
b]----------------------------------------------|
g]----------------------------------------------|
d]----------------------------------------------|
a]-11-11-11-11-11-11-11-11-9\7/9-11-11-11-11-11-|
e]-0--0--0--0--0--0--0--0--0-----0--0--0--0--0--|

for easy playing on the tab below just hold strings a and d on the 9th fret with your index finger
and your ring finger just switches strings
VERSE or whatever they call it
e]---------------------------------------------------|
b]---------------------------------------------------|
g]---------------------------------------------------|
d]-------------------------9h11p9--------------------|
a]-11-11-11-11-11-11-11-11-9------11-11-11-11-9-9h11-|
e]-0--0--0--0--0--0--0--0---------0--0--0--0--0-0-0--|

and yes those are "11"'s not "1"'s...
BRIDGE 1
e]------------------------------|
b]------------------------------|
g]-----------88888888-999999999-|
d]--11111111-88888888-999999999-|
a]--11111111-66666666-111111111-|
e]--99999999--------------------|


to strum, let your ring finger touch the "a" string so it doesn't make a sound
BRIDGE 2
e]-----------------------------------------------------------|
b]-----------------------------------------------------------|
g]-----------------------------------------------------------|
d]-99/11-11-11-11-11-11-11\9-9999999-------------------------|
a]-xx----x--x--x--x--x--x----xxxxxxx-9-9/11-9-11-11-11-11-11-|
e]-77/9--9--9--9--9--9---9\7-7777777-0-0----0-0--0--0--0--0--|

i think this part is only played on the cd...
but it still sounds good :]
BRIDGE 3
e]-------------------------------------|
b]-------------------------------------|
g]-------------------------------------|
d]--11111111-99999999-2222222222222222-|
a]--11111111-99999999-2222222222222222-|
e]--99999999-77777777-0000000000000000-|

SOLO 1
e]--------------------------------------------|
b]--------------------------------------------|
g]-9-9----------------------------------------|
d]-----12-9--9-----------9-------9------------|
a]---------12-12-11--9-11-11-9h11-11----------|
e]------------------------------------12\10-7-|

e]----------------------------------------|
b]----------------------------------------|
g]-------------------11-13-13-13-13/14\13-|
d]-14-14-14-14-14-14----------------------|
a]----------------------------------------|
e]----------------------------------------|

e]-----------------------------|
b]-----------------------------|
g]-------------------11--11/13-|
d]-14-14-14-14-14-14---14------|
a]-----------------------------|
e]-----------------------------|

SOLO 2
e]----------------------------------------------|
b]----------------------------------------------|
g]-13-13-13-13-13-13-13-13-11-11-13-13-13/14\13-|
d]----------------------------------------------|
a]----------------------------------------------|
e]----------------------------------------------|

e]-----------------------------------|
b]-----------------------------------|
g]-13-13-13-13-13-13-13-13-11--11/13-|
d]---------------------------14------|
a]-----------------------------------|
e]-----------------------------------|

SOLO 3
e]---------------------------------------------|
b]---------------------------------------------|
g]---------------------------------------------|
d]-9----9----------------9-------9-------------|
a]-------12-11-12-11-9-11-11-9h11-11-----------|
e]----------------------------------10/12\10-7-|

e]----------------------------------------------|
b]----------------------------------------------|
g]----------------------------------------------|
d]----------------------------------------------|
a]-11-11-11-11-11-11-11-11-9-9-9-11-11-11/12\11-|
e]----------------------------------------------|

e]----------------------------------|
b]----------------------------------|
g]----------------------------------|
d]----------------------------------|
a]-11-11-11-11-11-11-11-11-9\7/9-11-|
e]----------------------------------|

COMPLETE SONG:

{0:00 - 0:10} MAIN RIFF
e]------------------------------------------------|  X3
b]------------------------------------------------|
g]------------------------------------------------|
d]------------------------------------------------|
a]-11-11-11-11-11-11-11-11-9-9-9-11-11-11/12\11---|
e]-0--0--0--0--0--0--0--0--0-0-0-0--0--0----------|

{0:10 - 0:15}
e]----------------------------------------|
b]----------------------------------------|
g]----------------------------------------|
d]-11-11-11-11-11-11-11-11-9\7/9-11-11-11-|
e]-0--0--0--0--0--0--0--0--0-----0--0--0--|

{0:15 - 0:22} BRIGDE
e]-------------------------------------|
b]-------------------------------------|
g]-------------------------------------|
d]--11111111-99999999-2222222222222222-|
a]--11111111-99999999-2222222222222222-|
e]--99999999-77777777-0000000000000000-|

{0:20 - 0:33} VERSE
e]----------------------------------------------------| X4
b]----------------------------------------------------|
g]----------------------------------------------------|
d]-------------------------9h11p9---------------------|
a]-11-11-11-11-11-11-11-11-9------11-11-11-11-9-9h11--|
e]-0--0--0--0--0--0--0--0---------0--0--0--0--0-0-0---|

background guitar
{0:33 - 0:41} MAIN RIFF
e]------------------------------------------------|  X2
b]------------------------------------------------|
g]------------------------------------------------|
d]------------------------------------------------|
a]-11-11-11-11-11-11-11-11-9-9-9-11-11-11/12\11---|
e]-0--0--0--0--0--0--0--0--0-0-0-0--0--0----------|


{0:41 - 0:47} BRIDGE
e]-----------------------------------------------------------|
b]-----------------------------------------------------------|
g]-----------------------------------------------------------|
d]-99/11-11-11-11-11-11-11\9-9999999-------------------------|
a]-xx----x--x--x--x--x--x----xxxxxxx-9-9/11-9-11-11-11-11-11-|
e]-77/9--9--9--9--9--9---9\7-7777777-0-0----0-0--0--0--0--0--|

{0:45 - 0:53} VERSE
e]-----------------------------------------------------|  X2
b]-----------------------------------------------------|
g]-----------------------------------------------------|
d]-------------------------9h11p9----------------------|
a]-11-11-11-11-11-11-11-11-9------11-11-11-11-9-9h11---|
e]-0--0--0--0--0--0--0--0---------0--0--0--0--0-0-0----|

{0:53 - 0:57} MAIN RIFF
e]----------------------------------------------|
b]----------------------------------------------|
g]----------------------------------------------|
d]----------------------------------------------|
a]-11-11-11-11-11-11-11-11-9\7/9-11-11-11-11-11-|
e]-0--0--0--0--0--0--0--0--0-----0--0--0--0--0--|

{0:57 - 1:01}
e]----------------------------------------------|
b]----------------------------------------------|
g]----------------------------------------------|
d]----------------------------------------------|
a]-11-11-11-11-11-11-11-11-9-9-9-11-11-11/12\11-|
e]-0--0--0--0--0--0--0--0--0-0-0-0--0--0--------|

(1:01 - 1:07} BRIDGE
e]-----------------------------------------------------------|
b]-----------------------------------------------------------|
g]-----------------------------------------------------------|
d]-99/11-11-11-11-11-11-11\9-9999999-------------------------|
a]-xx----x--x--x--x--x--x----xxxxxxx-9-9/11-9-11-11-11-11-11-|
e]-77/9--9--9--9--9--9---9\7-7777777-0-0----0-0--0--0--0--0--|


{1:07 - 1:19}  SOLO 1
e]--------------------------------------------|
b]--------------------------------------------|
g]-9-9----------------------------------------|
d]-----12-9--9-----------9-------9------------|
a]---------12-12-11--9-11-11-9h11-11----------|
e]------------------------------------12\10-7-|

e]----------------------------------------|
b]----------------------------------------|
g]-------------------11-13-13-13-13/14\13-|
d]-14-14-14-14-14-14----------------------|
a]----------------------------------------|
e]----------------------------------------|

e]-----------------------------|
b]-----------------------------|
g]-------------------11--11/13-|
d]-14-14-14-14-14-14---14------|
a]-----------------------------|
e]-----------------------------|

(1:19 - 1:23}  MAIN RIFF
e]----------------------------------------------|
b]----------------------------------------------|
g]----------------------------------------------|
d]----------------------------------------------|
a]-11-11-11-11-11-11-11-11-9\7/9-11-11-11-11-11-|
e]-0--0--0--0--0--0--0--0--0-----0--0--0--0--0--|

{1:23 - 1:26}
e]----------------------------------------------|
b]----------------------------------------------|
g]----------------------------------------------|
d]----------------------------------------------|
a]-11-11-11-11-11-11-11-11-9-9-9-11-11-11/12\11-|
e]-0--0--0--0--0--0--0--0--0-0-0-0--0--0--------|

{1:26 - 1:31} BRIDGE
e]-------------------------------------------------------------|
b]-------------------------------------------------------------|
g]-------------------------------------------------------------|
d]-99/11-11-11-11-11-11-13\9-9999999---------------------------|
a]-xx----x--x--x--x--x--x----xxxxxxx-9-9/11-9-11-11-11-11-11---|
e]-77/9--9--9--9--9--9---11\7-7777777-0-0----0-0--0--0--0--0---|

{1:31 - 1:33}
e]------------------------------------|
b]---9-9------------------------------|
g]------12-9--------------------------|
d]------------------------------------|
a]------------------------------------|
e]------------------------------------|

{1:33 - 1:41} MAIN RIFF
e]----------------------------------------------|
b]----------------------------------------------|
g]----------------------------------------------|
d]----------------------------------------------|
a]-11-11-11-11-11-11-11-11-9\7/9-11-11-11-11-11-|
e]-0--0--0--0--0--0--0--0--0-----0--0--0--0--0--|

{1:41 - 1:46} BRIDGE
e]-----------------------------------------------------------|
b]-----------------------------------------------------------|
g]-----------------------------------------------------------|
d]-99/11-11-11-11-11-11-11\9-9999999-------------------------|
a]-xx----x--x--x--x--x--x----xxxxxxx-9-9/11-9-11-11-11-11-11-|
e]-77/9--9--9--9--9--9---9\7-7777777-0-0----0-0--0--0--0--0--|

{1:45 - 2:00}  SOLO 2
e]----------------------------------------------|
b]----------------------------------------------|
g]-13-13-13-13-13-13-13-13-11-11-13-13-13/14\13-|
d]----------------------------------------------|
a]----------------------------------------------|
e]----------------------------------------------|

e]-----------------------------------|
b]-----------------------------------|
g]-13-13-13-13-13-13-13-13-11--11/13-|
d]---------------------------14------|
a]-----------------------------------|
e]-----------------------------------|

{2:00 - 2:06} BRIDGE
e]------------------------------|
b]------------------------------|
g]-----------88888888-999999999-|
d]--11111111-88888888-999999999-|
a]--11111111-66666666-111111111-|
e]--99999999--------------------|

{2:06 - 2:11} VERSE
e]-------------------------------------------------------|    X2
b]-------------------------------------------------------|
g]-------------------------------------------------------|
d]-------------------------9h11p9------------------------|
a]-11-11-11-11-11-11-11-11-9------11-11-11-11-9-9h11-----|
e]-0--0--0--0--0--0--0--0---------0--0--0--0--0-0-0------|

{2:11 - 2:17} BRIDGE
e]------------------------------|
b]------------------------------|
g]-----------88888888-999999999-|
d]--11111111-88888888-999999999-|
a]--11111111-66666666-111111111-|
e]--99999999--------------------|

{2:15- 2:32} SOLO 3
e]---------------------------------------------|
b]---------------------------------------------|
g]---------------------------------------------|
d]-9----9----------------9-------9-------------|
a]-------12-11-12-11-9-11-11-9h11-11-----------|
e]----------------------------------10/12\10-7-|

e]----------------------------------------------|
b]----------------------------------------------|
g]----------------------------------------------|
d]----------------------------------------------|
a]-11-11-11-11-11-11-11-11-9-9-9-11-11-11/12\11-|
e]----------------------------------------------|

e]----------------------------------|
b]----------------------------------|
g]----------------------------------|
d]----------------------------------|
a]-11-11-11-11-11-11-11-11-9\7/9-11-|
e]----------------------------------|


{2:32 - 2:37}
e]------------------------------|
b]------------------------------|
g]-----------88888888-999999999-|
d]--11111111-88888888-999999999-|
a]--11111111-66666666-111111111-|
e]--99999999--------------------|


{2:42 - 2:47} BRIDGE
e]-------------------------------------|
b]-------------------------------------|
g]-------------------------------------|
d]--11111111-99999999-2222222222222222-|
a]--11111111-99999999-2222222222222222-|
e]--99999999-77777777-0000000000000000-|


background guitar
{2:47 - 3:11}
e]---------------------------------------| X3
b]------5----5----5----5----5----5----5--|
g]---44---44---44---44---44---44---44----|
d]---44---44---44---44---44---44---44----|
a]---------------------------------------|
e]---------------------------------------|


{3:05 - 3:11} BRIDGE
e]-------------------------------------|
b]-------------------------------------|
g]-------------------------------------|
d]--11111111-99999999-2222222222222222-|
a]--11111111-99999999-2222222222222222-|
e]--99999999-77777777-0000000000000000-|


(3:11-3:25} MAIN RIFF
e]--------------------------------------------------|    X4
b]--------------------------------------------------|
g]--------------------------------------------------|
d]--------------------------------------------------|
a]-11-11-11-11-11-11-11-11-9-9-9-11-11-11/12\11-----|
e]-0--0--0--0--0--0--0--0--0-0-0-0--0--0------------|


{3:39 - 4:02} BRIDGE
e]---------------------------------|   X2
b]---------------------------------|
g]-----------88888888-999999999----|
d]--11111111-88888888-999999999----|
a]--11111111-66666666-111111111----|
e]--99999999-----------------------|


background guitar
{4:16 - 4:39}
e]-------------------------------------------|  X2
b]-------------------------------------------|
g]-------------------------------------------|
d]-0-3-5-5/7-7\5-3-0-3--3-5-5/7-5\7-5-3-0-3--|
a]-------------------------------------------|
e]-------------------------------------------|


{4:54 - 4:58}
e]----------------------------------------------|
b]----------------------------------------------|
g]--------------------------------------2/5-5\2-|
d]-0-3-5-5/7-7\5-3-0-3--3-5-5/7-5\7-5-3---------|
a]----------------------------------------------|
e]----------------------------------------------|


{5:12 - 5:17} BRIDGE
e]-------------------------------------|
b]-------------------------------------|
g]-------------------------------------|
d]--11111111-99999999-2222222222222222-|
a]--11111111-99999999-2222222222222222-|
e]--99999999-77777777-0000000000000000-|


{5:17 - 5:32} VERSE
e]-----------------------------------------------------|  X4
b]-----------------------------------------------------|
g]-----------------------------------------------------|
d]-------------------------9h11p9----------------------|
a]-11-11-11-11-11-11-11-11-9------11-11-11-11-9-9h11---|
e]-0--0--0--0--0--0--0--0---------0--0--0--0--0-0-0----|

{5:32 - 5:42} MAIN RIFF
e]-------------------------------------------------|   X3
b]-------------------------------------------------|
g]-------------------------------------------------|
d]-------------------------------------------------|
a]-11-11-11-11-11-11-11-11-9-9-9-11-11-11/12\11----|
e]-0--0--0--0--0--0--0--0--0-0-0-0--0--0-----------|

{5:42 - 5:46}
e]----------------------------------------------|
b]----------------------------------------------|
g]----------------------------------------------|
d]----------------------------------------------|
a]-11-11-11-11-11-11-11-11-9\7/9-11-11-11-11-11-|
e]-0--0--0--0--0--0--0--0--0-----0--0--0--0--0--|

another great song...well thanks for looking at my tab! :]
            
Hard to play? Try these video lessons and learn fast. | Correct




comments powered by Disqus
↑ Back to top | Tablatures and chords are parodies/interpretations of the original songs. You may use it for private study, scholarship, research or language learning purposes only