» » »

Kissing Families Bass tabs (ver.1)

Artists:  A B C D E F G H I J K L M N O P Q R S T U V W X Y Z # 

Kissing Families Bass tabs (ver.1)

Silversun Pickups
Rating:
0/5 (0 votes)

Hard to play? Try these video lessons and learn fast.
                Silversun Pickups - Kissing Family

So, the tab for this song should be pretty accurate. It follows a main riff pretty

much all the way through, but there are some bits that break from this pattern.

I've tabbed it like Nikki plays it (all on the E string) but obviously feel free to use 
A string.

Riff 1a x2
G------------------|------------------|
D------------------|------------------|
A------------------|------------------|
E-/9-9-9-9-7-7-7-7-|--0-0-0-0/5-5-5-5-|

Riff 1b
G------------------|----------------------|
D------------------|----------------------|
A------------------|----------------------|
E-/9-9-9-9-7-7-7-7-|-/12-12-12-12\5-5-5-5-|

Riff 2
G------------------|------------------|------------------|------------------|
D------------------|------------------|------------------|------------------|
A------------------|------------------|------------------|------------------|
E-/9-9-9-9-9-9-9-9-|--9-9-9-9-9-9-9-9-|--9-9-9-9-9-9-9-9-|--9-9-9-9-9-9-9-9-|

Riff 3a x3
G------------------|------------------|------------------|----------|
D------------------|------------------|------------------|----------|
A------------------|------------------|------------------|----------|
E-/9-9-9-9-9-9-9-9-|--7-7-7-7-7-7-7-7-|--0-0-0-0/5-5-5-5-|--5-5-5-5-|

Riff 3b
G------------------|------------------|----------------------|----------|
D------------------|------------------|----------------------|----------|
A------------------|------------------|----------------------|----------|
E-/9-9-9-9-9-9-9-9-|--7-7-7-7-7-7-7-7-|-/12-12-12-12-5-5-5-5-|--5-5-5-5-|

Riff 3a x2

Riff 4a x4
G------------------|------------------|----------------|------------------|
D------------------|------9-7-6-------|----------------|------------------|
A------------------|--7-7-------7-----|----------------|------------------|
E--9-9-9-9-7-7-7-7-|--------------9-7-|9-9-9-9-7-7-7-7-|--0-0-0-0-5-0-5-0-|

Riff 4b
G------------------|----------|
D------------------|----------|
A------------------|----------|
E--5-0-5-0-5-0-5-0-|--5-0-5-0-|

Riff 3a x3

Riff 3c
G------------------|------------------|------------------|----------|
D------------------|------------------|------------------|----------|
A------------------|------------------|------------------|----------|
E-/9-9-9-9-9-9-9-9-|--7-7-7-7-7-7~~~~~|--0-0-0-0/5-5-5-5-|--5-5-5-5-|

Riff 3a x4

Riff 3d
G------------------|--------------------------|-----------------|----------|
D------------------|--------------------------|-----------------|----------|
A------------------|--------------------------|-----------------|----------|
E-/9-9-9-9-9-9-9-9-|--11-11-11-11-11-11-11-11-|--12/0-0h5-5-5-5-|--5-5-5-5-|
					      Long slide

Riff 3a
Riff 3d
Riff 3a x3
Riff 4a x2
Riff 1b
Riff 4a
Riff 1a x2
Riff 1b
Riff 1a

Let the last note ring and that should be it. My timings may be off (let me know) but 
Kissing Families sorted.
            
Hard to play? Try these video lessons and learn fast. | Correct




comments powered by Disqus
↑ Back to top | Tablatures and chords are parodies/interpretations of the original songs. You may use it for private study, scholarship, research or language learning purposes only