» » »

Sandali Lang Bass tabs (ver.1)

Artists:  A B C D E F G H I J K L M N O P Q R S T U V W X Y Z # 

Sandali Lang Bass tabs (ver.1)

Silent Sanctuary
Rating:
0/5 (0 votes)

Hard to play? Try these video lessons and learn fast.
                Silent Sanctuary


G |--------------|-------------------------|
D |--------------|-------------------------|
A |--------5/7---|-----------5/7--5--------|
E |---2--5-------|---5--2--5--------5--2---|

G |--------------|------------------------------|
D |--------------|------------------------------|
A |--------5/7---|---9-10-12--10-9--9h10--------|
E |---2--5-------|----------------------10-12---|


Kapain ko pa ung ibang part
stay tuned
            
Hard to play? Try these video lessons and learn fast. | Correct




comments powered by Disqus
↑ Back to top | Tablatures and chords are parodies/interpretations of the original songs. You may use it for private study, scholarship, research or language learning purposes only