» » »

Showbread, The Sky Alpha Tabs (ver.2)

Artists:  A B C D E F G H I J K L M N O P Q R S T U V W X Y Z # 

The Sky Alpha Tabs (ver.2)

Showbread Tabs
Rating:
0/5 (0 votes)
The Sky Alpha lessons Tabs too difficult? Try these video lessons and learn fast
                okay, so this is my first tab, but i'm sure that it's right.
the song's called 'The Sky (Alpha)', and it's by Showbread.
It's very easy and fun to play. I learned how to play it from this video: 
enjoy.

h   Hammer On
p   Pull Off
.   palm mute
/   Slide Up
\   Slide Down
x   Dead Note
~   Let Ring


Tuning- Standard (Eadgbe)


Verse 1 - (2x)

e[----------------------------------------------------------------------]
a[----------------------------------------------------------------------]
d[------0-------0-------0-------0-------0-------0-------0-------0-------]
g[--2-2-----2-2-----2-2-----2-2---2-0-0-----0-0-----0-0-----0-0---0-----]
b[----------------------------------------------------------------------]
E[----------------------------------------------------------------------]


e[----------------------------------------------------------------------]
a[----------------------------------------------------------------------]
d[------2-------2-------0-------0-------2-------2-------2-------2-------]
g[--3-3-----3-3---3-2-2-----2-2---2-0-0-----0-0-----0-0-----0-0---------]
b[----------------------------------------------------------------------]
E[----------------------------------------------------------------------]


Chorus

e[----------------------------------------------------------------------]
a[----------------------------------------------------------------------]
d[----------------------------------------------------------------------]
g[------2-------2-------2-------2-------2-------2-------2-------2-------]
b[--3-3-----3-3-----3-3-----3-3---3-0-0-----0-0-----0-0-----0-0---0-----]
E[----------------------------------------------------------------------]


e[----------------------------------------------------------------------]
a[----------------------------------------------------------------------]
d[------2-------2-------0-------0-------0-------0-------0-------0-------]
g[--3-3-----3-3---3-2-2-----2-2---2-0-0-----0-0-----0-0-----0-0---------]
b[----------------------------------------------------------------------]
E[----------------------------------------------------------------------]


e[----------------------------------------------------------------------]
a[----------------------------------------------------------------------]
d[----------------------------------------------------------------------]
g[------2-------2-------2-------2-------2-------2-------2-------2-------]
b[--3-3-----3-3-----3-3-----3-3---3-0-0-----0-0-----0-0-----0-0---0-----]
E[----------------------------------------------------------------------]


e[----------------------------------------------------------------------]
a[----------------------------------------------------------------------]
d[------2-------2-------0-------0-------2-------0-------2-------0-------]
g[--3-3-----3-3---3-2-2-----2-2---2-0-0-----0-0-----0-0-----0-0---------]
b[----------------------------------------------------------------------]
E[----------------------------------------------------------------------]


Verse 2 - (2x)

e[----------------------------------------------------------------------]
a[----------------------------------------------------------------------]
d[------0-------0-------0-------0-------0-------0-------0-------0-------]
g[--2-2-----2-2-----2-2-----2-2---2-0-0-----0-0-----0-0-----0-0---0-----]
b[----------------------------------------------------------------------]
E[----------------------------------------------------------------------]


e[----------------------------------------------------------------------]
a[----------------------------------------------------------------------]
d[------2-------2-------0-------0-------2-------2-------2-------2-------]
g[--3-3-----3-3---3-2-2-----2-2---2-0-0-----0-0-----0-0-----0-0---0-----]
b[----------------------------------------------------------------------]
E[----------------------------------------------------------------------]


Chorus

e[----------------------------------------------------------------------]
a[----------------------------------------------------------------------]
d[----------------------------------------------------------------------]
g[------2-------2-------2-------2-------2-------2-------2-------2-------]
b[--3-3-----3-3-----3-3-----3-3---3-0-0-----0-0-----0-0-----0-0---0-----]
E[----------------------------------------------------------------------]


e[----------------------------------------------------------------------]
a[----------------------------------------------------------------------]
d[------2-------2-------0-------0-------0-------0-------0-------0-------]
g[--3-3-----3-3---3-2-2-----2-2---2-0-0-----0-0-----0-0-----0-0---0-----]
b[----------------------------------------------------------------------]
E[----------------------------------------------------------------------]


e[----------------------------------------------------------------------]
a[----------------------------------------------------------------------]
d[----------------------------------------------------------------------]
g[------2-------2-------2-------2-------2-------2-------2-------2-------]
b[--3-3-----3-3-----3-3-----3-3---3-0-0-----0-0-----0-0-----0-0---0-----]
E[----------------------------------------------------------------------]


e[----------------------------------------------------------------------]
a[----------------------------------------------------------------------]
d[------2-------2-------0-------0-------2-------0-------2-------0-------]
g[--3-3-----3-3---3-2-2-----2-2---2-0-0-----0-0-----0-0-----0-0---0-----]
b[----------------------------------------------------------------------]
E[----------------------------------------------------------------------]


Bridge

e[----------------------------------------------------------------------]
a[----------------------------------------------------------------------]
d[----------------------------------------2-------0-------0-------0-----]
g[------2-------0-------2-------2-----3-3---3-2-2---2-0-0---0-0-0---0---]
b[--3-3---3-2-2---2-0-0---0-0-0---0-------------------------------------]
E[----------------------------------------------------------------------]


e[----------------------------------------------------------------------]
a[----------------------------------------------------------------------]
d[----------------------------------------2-------0-------0-------0~----]
g[------2-------0-------2-------2-----3-3---3-2-2---2-0-0---0-0-0-------]
b[--3-3---3-2-2---2-0-0---0-0-0---0-------------------------------------]
E[----------------------------------------------------------------------]



Chorus

e[----------------------------------------------------------------------]
a[----------------------------------------------------------------------]
d[----------------------------------------------------------------------]
g[------2-------2-------2-------2-------2-------2-------2-------2-------]
b[--3-3-----3-3-----3-3-----3-3---3-0-0-----0-0-----0-0-----0-0---0-----]
E[----------------------------------------------------------------------]


e[----------------------------------------------------------------------]
a[----------------------------------------------------------------------]
d[------2-------2-------0-------0-------0-------0-------0-------0-------]
g[--3-3-----3-3---3-2-2-----2-2---2-0-0-----0-0-----0-0-----0-0---0-----]
b[----------------------------------------------------------------------]
E[----------------------------------------------------------------------]


e[----------------------------------------------------------------------]
a[----------------------------------------------------------------------]
d[----------------------------------------------------------------------]
g[------2-------2-------2-------2-------2-------2-------2-------2-------]
b[--3-3-----3-3-----3-3-----3-3---3-0-0-----0-0-----0-0-----0-0---0-----]
E[----------------------------------------------------------------------]


e[----------------------------------------------------------------------]
a[----------------------------------------------------------------------]
d[------2-------2-------0-------0-------2-------0-------2-------0~------]
g[--3-3-----3-3---3-2-2-----2-2---2-0-0-----0-0-----0-0-----0-0---------]
b[----------------------------------------------------------------------]
E[----------------------------------------------------------------------]


And that's it! hope I helped =)
            

comments powered by Disqus
↑ Back to top | Showbread Tabs for The Sky Alpha. Lyrics for acoustic guitar and electric guitar. Tablatures and chords are parodies/interpretations of the original songs. You may use it for private study, scholarship, research or language learning purposes only