» » »

Showbread, The Sky Alpha Tabs (ver.1)

Artists:  A B C D E F G H I J K L M N O P Q R S T U V W X Y Z # 

The Sky Alpha Tabs (ver.1)

Showbread Tabs
 Rating:
4/5 (7 votes)
The Sky Alpha lessons Tabs too difficult? Try these video lessons and learn fast
                Showbread
The Sky (Alpha)
Anorexia
© 2008 Tooth and Nail
Tuning - Standard: EADGBE




Verse 1: (x2) (0:00)
                     (I remember you, when you are wrapped in darkness..)
E[--------------------------------------------------------------------------]
B[--------------------------------------------------------------------------]
G[------0--------0--------0--------0--------0--------0--------0--------0----]
D[--------------------------------------------------------------------------]
A[--7-7------7-7------7-7------7-7---7--5-5------5-5------5-5------5-5---5--]
E[--------------------------------------------------------------------------]


E[--------------------------------------------------------------------------]
B[--------------------------------------------------------------------------]
G[--------------------------------------------------------------------------]
D[------7--------7--------5--------5--------7--------7--------7--------7----]
A[--8-8------8-8---8--7-7------7-7---7--5-5------5-5------5-5------5-5------]
E[--------------------------------------------------------------------------]



Chorus: (0:35)
    ("Who is this," they say to me, "That the wind and waves obey?"..)
E[--------------------------------------------------------------------------]
B[--------------------------------------------------------------------------]
G[--------------------------------------------------------------------------]
D[------2--------2--------2--------2--------2--------2--------2--------2----]
A[--3-3------3-3------3-3------3-3---3--0-0------0-0------0-0------0-0---0--]
E[--------------------------------------------------------------------------]


E[--------------------------------------------------------------------------]
B[--------------------------------------------------------------------------]
G[--------------------------------------------------------------------------]
D[------7--------7--------5--------5--------5--------5--------5--------5----]
A[--8-8------8-8---8--7-7------7-7---7--5-5------5-5------5-5------5-5------]
E[--------------------------------------------------------------------------]


E[--------------------------------------------------------------------------]
B[--------------------------------------------------------------------------]
G[--------------------------------------------------------------------------]
D[------2--------2--------2--------2--------2--------2--------2--------2----]
A[--3-3------3-3------3-3------3-3---3--0-0------0-0------0-0------0-0---0--]
E[--------------------------------------------------------------------------]


E[--------------------------------------------------------------------------]
B[--------------------------------------------------------------------------]
G[--------------------------------------------------------------------------]
D[------7--------7--------5--------5--------7--------5--------7--------5----]
A[--8-8------8-8---8--7-7------7-7---7--5-5------5-5------5-5------5-5------]
E[--------------------------------------------------------------------------]


Verse 2: (x2) (1:10)
                      (I ache for you, when my body cracks and I sigh..)
E[--------------------------------------------------------------------------]
B[--------------------------------------------------------------------------]
G[------0--------0--------0--------0--------0--------0--------0--------0----]
D[--------------------------------------------------------------------------]
A[--7-7------7-7------7-7------7-7---7--5-5------5-5------5-5------5-5---5--]
E[--------------------------------------------------------------------------]


E[--------------------------------------------------------------------------]
B[--------------------------------------------------------------------------]
G[--------------------------------------------------------------------------]
D[------7--------7--------5--------5--------7--------7--------7--------7----]
A[--8-8------8-8---8--7-7------7-7---7--5-5------5-5------5-5------5-5------]
E[--------------------------------------------------------------------------]



Chorus: (x2) (1:46)
    ("Who is this," they say to me, "That the wind and waves obey?"..)
E[--------------------------------------------------------------------------]
B[--------------------------------------------------------------------------]
G[--------------------------------------------------------------------------]
D[------2--------2--------2--------2--------2--------2--------2--------2----]
A[--3-3------3-3------3-3------3-3---3--0-0------0-0------0-0------0-0---0--]
E[--------------------------------------------------------------------------]


E[--------------------------------------------------------------------------]
B[--------------------------------------------------------------------------]
G[--------------------------------------------------------------------------]
D[------7--------7--------5--------5--------5--------5--------5--------5----]
A[--8-8------8-8---8--7-7------7-7---7--5-5------5-5------5-5------5-5------]
E[--------------------------------------------------------------------------]



Bridge: (2:21)

E[--------------------------------------------------------------------------]
B[--------------------------------------------------------------------------]
G[--------------------------------------------------------------------------]
D[------2--------0--------2--------2--------7--------5--------5--------5----]
A[--3-3---3--2-2---2--0-0---0--0-0---0-/8-8---8--7-7---7--5-5---5--5-5---5--]
E[--------------------------------------------------------------------------]


E[--------------------------------------------------------------------------]
B[--------------------------------------------------------------------------]
G[--------------------------------------------------------------------------]
D[------2--------0--------2--------2--------7--------5--------5-------------]
A[--3-3---3--2-2---2--0-0---0--0-0---0-/8-8---8--7-7---7--5-5---------------]
E[--------------------------------------------------------------------------]



Chorus: (2:41)
    ("Who is this," they say to me, "That the wind and waves obey?"..)
E[--------------------------------------------------------------------------]
B[--------------------------------------------------------------------------]
G[--------------------------------------------------------------------------]
D[------2--------2--------2--------2--------2--------2--------2--------2----]
A[--3-3------3-3------3-3------3-3---3--0-0------0-0------0-0------0-0---0--]
E[--------------------------------------------------------------------------]


E[--------------------------------------------------------------------------]
B[--------------------------------------------------------------------------]
G[--------------------------------------------------------------------------]
D[------7--------7--------5--------5--------7--------5--------7--------5----]
A[--8-8------8-8---8--7-7------7-7---7--5-5------5-5------5-5------5-5------]
E[--------------------------------------------------------------------------]


E[--------------------------------------------------------------------------]
B[--------------------------------------------------------------------------]
G[--------------------------------------------------------------------------]
D[------2--------2--------2--------2--------2--------2--------2--------2----]
A[--3-3------3-3------3-3------3-3---3--0-0------0-0------0-0------0-0---0--]
E[--------------------------------------------------------------------------]


E[--------------------------------------------------------------------------]
B[--------------------------------------------------------------------------]
G[--------------------------------------------------------------------------]
D[------7--------7--------5--------5--------5--------5--------5--------5----]
A[--8-8------8-8---8--7-7------7-7---7--5-5------5-5------5-5------5-5------]
E[--------------------------------------------------------------------------]
                                                                   (let ring)
            
Submit corrections

comments powered by Disqus
↑ Back to top | Showbread Tabs for The Sky Alpha. Lyrics for acoustic guitar and electric guitar. Tablatures and chords are parodies/interpretations of the original songs. You may use it for private study, scholarship, research or language learning purposes only