» » »

Sex Pistols, The Great Rock Oll Swindle Tabs (ver.1)

Artists:  A B C D E F G H I J K L M N O P Q R S T U V W X Y Z # 

The Great Rock Oll Swindle Tabs (ver.1)

Sex Pistols Tabs
Rating:
0/5 (0 votes)
The Great Rock  Oll Swindle lessons Tabs too difficult? Try these video lessons and learn fast
                e---------------------------------------------------------------------------------------Riff A
B-----------------------------------------------------------------------4---6---8--6--4---6
G-8-8--------5------3--3--------5---5----3---3-------------------5----------------------
D-8-8--------5------3--3--------5---5----3---3-----6--6---------------------------------
A-6-6--------3------1--1--------3---3----1---1-----6--6---------------------------------
e---------------------------------------------------------4--4--------------------------------

e--------------------------------------------------------------------------------------------------- 
B--------------------------------------------------------------------------------------------------- 
G----8---8------5-----3---3------5-----8----8---------8--------------------------------------- 
D----8---8------5-----3---3------5-----8----8---------8---8--8--8--8--8--8--8------------ 
A----6---6------3-----1---1------3-----6----6---------6---8--8--8--8--8--8--8------------ 
E---------------------------------------------------------------6--6--6--6--6--6--6----repeat


e------------------------------------------------Riff B
B------------------------------------------------
G-----------------------------------------------
D--6-6-6-6-6-6-6-6—5/6-6---5/6-6-----                      D-6-6-6-6-6-6-6-6-------
A--6-6-6-6-6-6-6-6—5/6-6---5/6-6-----                      A-6-6-6-6-6-6-6-6-------
e--4-4-4-4-4-4-4-4---3/4-4---3/4-4----- repeat then do e-4-4-4-4-4-4-4-4-----


e-------------------------------------------------------------------do the same(Riff C)
B-------------------------------------------------------------------here then go
G-------------------------------------------------------------------back to riff B
D-8-8-8-8-8-8-8-8--7/8-8---7/8-8-------8-8-8-8-8-8-8-8then back to C
A-8-8-8-8-8-8-8-8--7/8-8---7/8-8-------8-8-8-8-8-8-8-8
e-6-6-6-6-6-6-6-6--5/6-6---5/6-6-------6-6-6-6-6-6-6-6

e----------------------------------------------------------------------------------------------
B---------------------------------------------------------------------------------------------
G---8-------5------3---3-----5-------8----5----3---3----5----8---5---3---3----5----8
D---8-------5------3---3-----5-------8----5----3---3----5----8---5---3---3----5----8--8
A---6-------3------1---1-----3-------6----3----1---1----3----6---3---1---1----3----6--8 x6
e------------------------------------------------------------------------------------------------6
repeat this last part where they say rock n roll swindle over and over 3 or 4 times.
You just mess around with the last part until you don’t feel like playing anymore.
            
Submit corrections

comments powered by Disqus
↑ Back to top | Sex Pistols Tabs for The Great Rock Oll Swindle. Lyrics for acoustic guitar and electric guitar. Tablatures and chords are parodies/interpretations of the original songs. You may use it for private study, scholarship, research or language learning purposes only