» » »

I Wana Be Me Not Chords Tabs (ver.1)

Artists:  A B C D E F G H I J K L M N O P Q R S T U V W X Y Z # 

I Wana Be Me Not Chords Tabs (ver.1)

Sex Pistols
Rating:
0/5 (0 votes)

Hard to play? Try these video lessons and learn fast.
                I GOT REALLY TIRED OF ONLY CHORDS ON THE NET I DONT KNOW BUT THIS IS GOOD

R MEANS REALESE (LET GO OF THE STRING AND PUT YOUR FINGERS BACK ON RELLY FAST)
H MEAN HAMMER ON
P MEANS PULL OF
* MEAN PALM MUTE
^ BEND STRING
                  !!PLEASE RATE THIS TAB!!
THIS TAB IS MORE ACURATE THEN THE CHORD IT HAS THE LITTLE SOLOS
INTRO
E-----------------------------------
B-----------------------------------
G-5R-5-5R-5-5R-5-5R-5-5R-5-5R-5-5R--
D-3R-3-3R-3-3R-3-3R-3-3R-3-3R-3-3R--
A-----------------------------------
E-----------------------------------
  THEN COMES THIS REAPET 2X
E---------------------------------------------------
B---------------------------------------------------
G-5-5-5-5-5-5-5-5-5-5-3-3-3-3-3-3-3-3-3-3-----------
D-3-3-3-3-3-3-3-3-3-3-1-1-1-1-1-1-1-1-1-1-5-5-5-3-5-
A-----------------------------------------3-3-3-1-3-
E---------------------------------------------------

VERSE REAPET THIS PART 2X
E----------------------------------------------------
B----------------------------------------------------
G-5-5R-5-5R-5-5R-5-5R-3-3R-3-3R-3-3R-3-3R------------
D-3-3R-3-3R-3-3R-3-3R-1-1R-1-1R-1-1R-1-1R--5-5-5-3-5-
A------------------------------------------3-3-3-1-3-
E----------------------------------------------------
 THEN COMES THIS (SECOND PART OF VERSE 1)
E-------------------------------------------------
B-------------------------------------------------
G-7-7-7-7-7-7-7-7-7-7-7-7-5-5-5-5-5-5-5-5-5-5-5-5-
D-5-5-5-5-5-5-5-5-5-5-5-5-3-3-3-3-3-3-3-3-3-3-3-3-
A ------------------------------------------------ 
E-------------------------------------------------
     (THIS IS STILL THE SECOND PART OF VERSE 1)
E--------------------------------------------------
B--------------------------------------------------
G-7-7-7-7-7-7-7-7-7-7-7-7-5-5-5-5-5-5-5-5-5-5-5-5--
D-5-5-0-5-5-0-5-5-0-5-5-0-3-3-0-3-3-0-3-3-0-3-3-0--
A--------------------------------------------------
E--------------------------------------------------
THIS IS THE FIRST AFTER VERSE SOLO
B-0-7-7-7-7-7-7/9-9

VERSE 2 
ITS THE SAME AS VERSE BUT THE FIRST PART IS KIND OF SWITCHED AROUND
E---------------------------------------------------
B---------------------------------------------------
G-5-5R-5-5R-5-5R-5-5R-3-3R-3-3R-3-3R-3-3R-----------
D-3-3R-3-3R-3-3R-3-3R-1-1R-1-1R-1-1R-1-1R-5-5-5-3-5-
A-----------------------------------------3-3-3-1-3-

E
B
G-5-5R-5-5R-5-5R-5-5R-5-3-3-3-3R-3-3R-3-3R-3-3R
D-3-3R-3-3R-3-3R-3-3R-3-5-5-1-1R-1-1R-1-1R-1-1R
A
E       AFTER THAT REAPET THE SECOND PART OF VERSE ONE

THIS IS THE SECOND AFTER VERES SOLO 

G-7-7-9-9]
D-5-5-7-7]             
    *         

AFTER DO THIS
G-----5H7P5H7P5H7-
D-7-5-------------

VERSE THREE REAPET JUST LIKE VERSE ONE

THIS IS THE THIRD AFTER VERSE SOLO THIS ISNT VERY ACURATE BUT BETTER THEN NOTHING
E-0H7/9-9-
B---------

OUTRO 
E-----------------5^-5^-------5/6-6-5/6-6-5/6-6-5/6-6-5/-6-6-6-6-6-6---6^
B-5H7P5H7P5H7P5---5^-5^-------5/6-6-5/6-6-5/6-6-5/6-6-5/-6-6-6-6-6-6---6^
            
Hard to play? Try these video lessons and learn fast. | Correct




comments powered by Disqus
↑ Back to top | Tablatures and chords are parodies/interpretations of the original songs. You may use it for private study, scholarship, research or language learning purposes only