» » »

When The Moment Of Death Arrives Tabs (ver.1)

Artists:  A B C D E F G H I J K L M N O P Q R S T U V W X Y Z # 

When The Moment Of Death Arrives Tabs (ver.1)

Sentenced
Rating:
0/5 (0 votes)

Hard to play? Try these video lessons and learn fast.
                When the Moment of Death Arrives
                 ----------------------------------
                          by SENTENCED
 tune down 2 steps


     E5                      E5           C5          E5 
c |---------------------------------------------------------------------------|
G |'--------------------------------------------------------------------------|
D#|--------0-----------------------0-----/5--4--2--4--------0-----------------|
Hb|-----2-----------------------2------------------------2--------------------|
F |'----------3--2--0--2--------------3------------------------3--2--0--2-----|
C |--0--------------------3--0------------------------0--------------------3--|

     A5                       H5          C5                H5           C5  D5
|---------------------------|---------------------------------------------------------|
|--------------------------'|---------------------------------------------------------|
|----/5--4--2--0------------|---------------------------------------------------------|
|-----------------4--2--0---|-4---5---7---5---7-5-4---2--0--4---5----7---5---7--4--2--|
|-0------------------------'|---------------------------------------------------------|
|---------------------------|---------------------------------------------------------|

riff 1
|-----------------------------------------------|
|-----------------------------------------------|
|-----------------------------------------------|
|----------2---------------------5\4------------|
|-2----2---0---3--2------7\6-------------3\2/3--|
|-0--0-3-0---0-1--0--0-0-----0-0-----0-0--------|
           
                                  end riff 1
|-------------------------------------------|
|-------------------------------------------|
|-------------------------------------------|
|-----------2------------3/5-5--------2/4-4-|
|-2-----2---0---3-5------------4------------|
|-0-0-0-3-0---0-1-3--3-3-------2--2-2-------|

 riff 2                                            |1.
|-------------------------------------------------|------------------|
|'------------------------------------------------|-----------------'|
|-------------------------------------------------|------------------|
|-------------------------------------------------|------------------|
|'----------------4-4-4-4-4-4-4-4-3-3-3-3---------|-2-2-2-2---------'|
|-2-2-2-2-2-2-2-2-------------------------4-4-4-4-|---------3-3-3-3--|

 |2.                |3.                                                 end riff 2
|-----------------|-----------------------------------------------------------------|
|----------------'|-----------------------------------------------------------------|
|-----------------|-----------------------------------------------------------------|
|---------4-4-4-4-|-----------------------------------------------------------------|
|-2-2-2-2--------'|-----------------------------------------------------------------|
|-----------------|-3-3-3-3-1-1-1-1-0-0-0-0-0-0-0-0-0-0-0-0-0-0-0-0-0-0-0-0-0-0-0-0-|


riff 3.

-F#5--D5--E5-H5-A5-G5-F#5--D5--H5-A5-C5-G5-

 riff 4.
|-----------------------------------------------------------------|
|-----------------------------------------------------------------|
|-----------------------------------------------------------------|
|---------------------------------0-0-0-0-------------------------|
|-----------------3-3-3-3-3-3-3-3---------0-0-0-0-----------------|
|-0-0-0-0-0-0-0-0---------------------------------3-3-3-3-1-1-1-1-|

                                                      end riff 4.
|-----------------------------------------------------------------|
|-----------------------------------------------------------------|
|-----------------------------------------------------------------|
|-----------------------------------------------------------------|
|-----------------3-3-3-3-3-3-3-3-0-0-0-0---------1-1-1-1---------|
|-0-0-0-0-0-0-0-0-------------------------3-3-3-3---------1-1-1-1-|

 riff 5.
|----------------------|
|----------------------|
|----------------------|
|------3--2---1----2---|
|-2----1--0---1----0---|
|-0--------------------|

 riff 6.
|-----------------------------------|  
|-----------------------------------|   (-8- = -8-8-8-8-)
|--------------7-6-----5-4-----3-2--|  
|-----------------------------------|   
|-8-9--------------6-5-----4-3------|  
|-----10-9-7-6----------------------|  

-solo   w/riff 5.
-riff 1.
-riff 2. (normal)
-riff 2. (play an octave higer, except E )
-riff 3.
-riff 4.

|----------------------------------------------------------|
|----------------------------------------------------------|
|---------0--2--2-0---0---------9-7------------------------|
|-----0-2-----------3---2-----------10-9-7-9-9h10-9--7--9--|
|----------------------------------------------------------|
|-0--------------------------0-----------------------------|

|---------------------------2-3-2----------------------------|
|-----------------------3-5-------------0-1-3-1-0------------|
|--------0-2-4-5-4--4-5------------2--2-----------2-0---0-2--|
|----0-2----------------------------------------------3------|
|------------------------------------------------------------|
|-0----------------------------------------------------------|

  We gather our hearts in the dark and cold.
            
Hard to play? Try these video lessons and learn fast. | Correct




comments powered by Disqus
↑ Back to top | Tablatures and chords are parodies/interpretations of the original songs. You may use it for private study, scholarship, research or language learning purposes only