» » »

Let Go Bass tabs (ver.1)

Artists:  A B C D E F G H I J K L M N O P Q R S T U V W X Y Z # 

Let Go Bass tabs (ver.1)

Sentenced
Rating:
0/5 (0 votes)

Hard to play? Try these video lessons and learn fast.
                Intro
|-----|
|-----|
|-----|
|-2-2-|

Intro 2
|-----------------------------------------------------------------|
|-----------------------------------------------------------------|
|-----------------0-0-0-0-0-0-0-0-2-2-2-2-2-2-2-2-2-2-2-2-2-2-2-2-|
|-2-2-2-2-2-2-2-2-------------------------------------------------|

Verse
|---------------------------------------------------------------|
|----------2--------------2---------------------------7---------|
|---------------------------3----------7---7\4-5--5-5---4-------|
|-2-2--------3----2-2------------2-2----------------------7-5-4-|

pre chorus
|---------------------------|
|-----------------7---------|
|-4---2-5-4--5-5----4-------|
|---------------------7-5-4-|

Chorus

|-----------------------------------------------------------------|
|-----------------------------------------------------------------|
|-----------------0-0-0-0-0-0-0-0-2-2-2-2-2-2-2-2-5-5-5-5-7-7-7-7-|
|-2-2-2-2-2-2-2-2-------------------------------------------------|


|------------------------------------------------------------------|
|-----------------------------------------------------7------------|
|-----------------0-0-0-0-0-0-0-0-7-7-7-7-7-7-7-7-5-5---4----------|
|-2-2-2-2-2-2-2-2-----------------------------------------7-5-4----|

verse

Pre chorus

Chorus

verse through solo part 1

solo part 2
|-------------------------------------------------------------------|
|-0-0-0-0-0-0-0-0-0-0-0-0-0-0-0-0-----------------------------------|
|-------------------------------------------------------------------|
|---------------------------------7-7-7-7-7-7-7-7-7-7-7-7-7-7-7-7-7-|

pre-chorus

chorus
            
Hard to play? Try these video lessons and learn fast. | Correct




comments powered by Disqus
↑ Back to top | Tablatures and chords are parodies/interpretations of the original songs. You may use it for private study, scholarship, research or language learning purposes only