>
 >
Killing Me Killing You

Killing Me Killing You Bass Tabs

Sentenced - Killing Me Killing You chords, tabs, tablatures, lyrics

Guitar lessons | Add/correct | Request | Top 50 tabs Artists:  A B C D E F G H I J K L M N O P Q R S T U V W X Y Z 0-9

Killing Me Killing You Bass Tabs – Sentenced

CD, Sheet music, Poster

Do you like Killing Me Killing You? Share with your friends now
Bass TabsTabs
“Killing Me, Killing You” – Sentenced
Standard Tuning

Piano Intro
No bass in first verse

Chorus 1
G|--------------------------------------------------------------------|
D|--------------------------------------------------------------------|
A|---5-5-------3-3-3-3-3-------5-5-5-5--------------------------------|
E|--------6-6------------3-3-3----------1-1-1---3-3-3-3-6-6-6-6-------|

G|--------------------------------------------------------------------|
D|--------------------------------------------------------------------|
A|---5-5-------3-3-3-3-3-------5-5-5-5-------------------3-3-3-3------|
E|--------6-6------------3-3-3----------1-1-1---3-3-3-3---------------|

Pre-Verse
G|--------------------------------------------------------------------|
D|--------------------------------------------------------------------|
A|--5-5-5-5-5-5-5\-----------------5-5-5-5-5-5-\----------------------|
E|------------------1-1-1-1-1-1-1----------------3-3-3-3-1-1-0-5------|

Verse 2
G|--------------------------------------------------------------------|
D|--------------------------------------------------------------------|
A|-5-5--5-5-1-1--1--------------------1-3--5-5--5-5--1-1--1-----------|
E|----------------3-1-1--1-1--3-3--3-----------------------3--1-1--1-1|

G|--------------------------------------------------------------------|
D|--------------------------------------------------------------------|
A|-3-3--5-5--1-1--1--------------------1-3--5-5--5-5--1-1--1----------|
E|------------------3--1-1--1-1--3-3--3---------------------3-1-1--1-1|

G|--------------------------------------------------------------------|
D|------------2-3-0--0-0--0-----------------------2-3-0--0-0--0-------|
A|-3-3--0-0-0-------------------------3--3-3--0-0---------------------|
E|--------------------------3--3-3--3--------------------------3--3-3-|

G|-----------------|
D|-----------------|
A|--0~--1~--0~-----|
E|-3---------------|

Chorus x2

G|--------------------------------------------------------------------|
D|-----------------------------------------------7-7-5-7-5------------|
A|-------------------------------5-5-5-5-5-5-5-5-----------8-7-5------|
E|-6-6-6-6-6-6-6-6-6-6-6-6-6-6-6---------------------------------8-5--|

G|--------------------------------------------------------------------|
D|--------------------------------------------------------------------|
A|--------------------------------------------------------------------|
E|-6-6-6-6-6-6-6-6-6-6-6-6-6-6-6-3-3-3-3-3-3-3-3-3-3-3-3-3-5----------|

G|--------------------------------------------------------------------|
D|-----------------------------------------------7-7-5-7-5------------|
A|-------------------------------5-5-5-5-5-5-5-5-----------8-7-5---3--|
E|-6-6-6-6-6-6-6-6-6-6-6-6-6-6-6---------------------------------8----|

G|--------------------------------------------------------------------|
D|--------------------------------------------------------------------|
A|-3-3-3-3-3-3-3-3-3-3-3-3-3------------------------3-3-3-3-5-5-5-----|
E|---------------------------3-3-3-3-3-3-3-3--1-1-1-------------------|

Break

Interlude
G|--------------------------------------------------------------------|
D|--------------------------------------------------------------------|
A|-3--3--3--3-3--3-3--3--3-3-----5-5------------3----3-3-3-3----------|
E|-----------------------------------------------------------3-3-3-3-3|

Chorus Variation x2
G|--------------------------------------------------------------------|
D|--------------------------------------------------------------------|
A|-7-7-------5-5-5-5--------7-7-7-7-----------------------------------|
E|------8-8----------5-5-5----------3-3-3--5-5-5-5--8-8-8-8-----------|

G|--------------------------------------------------------------------|
D|--------------------------------------------------------------------|
A|-7-7-------5-5-5-5--------7-7-7-7-----------------5-5-5-5-----------|
E|------8-8----------5-5-5----------3-3-3--5-5-5-5--------------------|

Solo x2
G|--------------------------------------------------------------------|
D|--------------------------------------------------------------------|
A|--------------------------------------------------------------------|
E|-0-0-0---0-0-0-0-0--0-0---8-8-8---8-8-8-8-8--8-8--------------------|

G|--------------------------------------------------------------------|
D|--------------------------------------------------------------------|
A|--------------------------0-0-0---0-0-0-0-0--0-0--------------------|
E|-3-3-3---3-3-3-3-3--3-3---------------------------------------------|

G|--------------------------------------------------------------------|
D|--------------------------------------------------------------------|
A|--------------------------------------------------------------------|
E|-0-0-0---0-0-0-0-0--0-0---8-8-8---8-8-8-8-8--8-8--------------------|

G|--------------------------------------------------------------------|
D|--------------------------------------------------------------------|
A|--------------------------5-5-5---5-5-5-5-5--5-5--------------------|
E|-3-3-3---3-3-3-3-3--3-3---------------------------------------------|

Outro
G|--------------------------------------------------------------------|
D|--------------------------------------------------------------------|
A|--------------------------------------------------------------------|
E|-0-0-0-0-3-0---3-3-5-5-3-3-3---0-0-0-0-3-0---7-7-5-5-3-3-5-0~~~-----|





Comments


Popular Sentenced tabs & chords
Blood And Tears Bass Tabs
Brief Is The Light Bass Tabs
Home In Despair Bass Tabs
Konevitsan Kirkonkellot Bass Tabs
No One There 2 Bass Tabs
The War Aint Over Bass Tabs
Aika Multaa Muistot (Everything Is Nothing) Tabs
Consider Us Dead Tabs
The Way I Wanna Go Tabs
Warrior Of Life Tabs


Song lyrics



↑ Back to top | Tablatures and chords are parodies/interpretations of the original songs. You may use it for private study, scholarship, research or language learning purposes only
© 2014 AZChords.com Contact us | Privacy policy | DMCA | Add/correct tabs | Request tabs | Top 50 tabs