» » »

Sentenced, Her Last 5 Minutes Bass tabs (ver.1)

Artists:  A B C D E F G H I J K L M N O P Q R S T U V W X Y Z # 

Her Last 5 Minutes Bass tabs (ver.1)

Sentenced Tabs
Rating:
0/5 (0 votes)
Hard to play? Try these video lessons and learn fast.
                “Her Last 5 Minutes” – Sentenced
Tuning: D,C,G,F

Rest

Intro
|--------------------------------------------|
|-3---2---1-----------------------3---2---1--|
|-----------------2-0----0-1-----------------|
|----------------------3---------------------|

Verse x2
|-----------------------------------------------------------------------|
|-----------------------------------------------------------------------|
|-0-0-0-0-0-0-0-0-0-0-0-0-0-0-0-0---------------------------------------|
|---------------------------------------4-4-4-4-4-4-4-4-4-4-4-4-4-4-4-4-|

|-----------------------------------------------------------------------|
|-----------------------------------------------------------------------|
|-3-3-3-3-3-3-3-3-3-3-3-3-3-3-3-3---------------------------------------|
|---------------------------------------3-3-3-3-3-3-3-3-3-3-3-3-3-3-3-3-|

Break
|--------------------------------------------------------|
|-3---2---1-----------------------3---2---1--------------|
|-----------------2-0----0-1-----------------1-1-1-3-3-3-|
|----------------------3---------------------------------|


Chorus x2
|-----------------------------------------------------------------------|
|-0-0-0-0-0-0-0-0-0-0-0-0-0-0-0-0---------------------------------------|
|---------------------------------------3-3-3-3-3-3-3-3-3-3-3-3-3-3-3-3-|
|-----------------------------------------------------------------------|

|-----------------------------------------------------------------------|
|-----------------------------------------------------------------------|
|-1-1-1-1-1-1-1-1-1-1-1-1-1-1-1-1---------------------------------------|
|---------------------------------------3-3-3-3-3-3-3-3-3-3-3-3-3-3-3-3-|

Verse x2

Break

Chorus x6

Rest
            

comments powered by Disqus
↑ Back to top | Sentenced Bass for Her Last 5 Minutes. Lyrics for acoustic guitar and electric guitar. Tablatures and chords are parodies/interpretations of the original songs. You may use it for private study, scholarship, research or language learning purposes only