>
 >
Guilt And Regret

Guilt And Regret Guitar Tabs

Sentenced - Guilt And Regret chords, tabs, tablatures, lyrics

Guitar lessons | Add/correct | Request | Top 50 tabs Artists:  A B C D E F G H I J K L M N O P Q R S T U V W X Y Z 0-9

Guilt And Regret Guitar Tabs – Sentenced

CD, Sheet music, Poster

Do you like Guilt And Regret? Share with your friends now
Tabs
Tuning: D standard ( D G C F A D )

Check out my cover video for fingering + timing:

Guitar Solo - 1:31 

|----------------------------------------------------------------------|
|------------11--10----------------------------------------------------|
|--12~~--12----------10------------------------------------------------|
|------------------------10--------------10----------------------------|
|----------------------------13--12--13-----12--13~--10--13--12h13p12--|
|----------------------------------------------------------------------|

|----------------------------------------------------------------------|
|------------------------------------------------18--------------------|
|---------------------------------------15--17---17b(19)r17--15--14----|
|----------------------------------/17---------------------------------|
|--10--13--12h13p12--10------10~---------------------------------------|
|------------------------13--------------------------------------------|

|----------------------------------------------------------18------18--|
|--------------------------------------------------------------15------|
|--15--14~~\----15--14--15--------15--14--15--17~--15--17--------------|
|---------------------------17~----------------------------------------|
|----------------------------------------------------------------------|
|----------------------------------------------------------------------|

|--17------17--15------------------------------------------------------|
|------15----------18--15--------------------16------------------------|
|--------------------------17--15--17b(19)-------17b(19)r17---14~~~----|
|----------------------------------------------------------------------|
|----------------------------------------------------------------------|
|----------------------------------------------------------------------|

|------------|
|------------|
|------------|
|--7---------|
|--7---------|
|--5---------|

Classical Guitar Solo - 2:11

|-----10--------------------------10--10--10----------------------------------|
|--13-----13--11--10-----------13-------------13--11/13--11h13p11--10--10/11--|
|--------------------12-------------------------------------------------------|
|-----------------------12----------------------------------------------------|
|-----------------------------------------------------------------------------|
|-----------------------------------------------------------------------------|

|-----10--------------------------10--10--13--13--11h13p11--10--------------|
|--13-----13--11--10--11-------13-------------------------------13--11--13--|
|-------------------------12------------------------------------------------|
|---------------------------------------------------------------------------|
|---------------------------------------------------------------------------|
|---------------------------------------------------------------------------|

|--10--13-------------------------------------------------------------------|
|----------11--10----13-----------------------------------------------------|
|------------------------10--12---------------------------------------------| Nylon Guitar
|---------------------------------------------------------------------------|
|---------------------------------------------------------------------------|
|---------------------------------------------------------------------------|
|                                                                           |
|-/10--13------------------------10h11h13p11p10-----------------------------|
|----------11--10--13---------------------------13-11p10h11h13p11p10--------|
|----------------------10--12~----------------------------------------12~~--| Lead Guitar 1
|---------------------------------------------------------------------------|
|---------------------------------------------------------------------------|
|---------------------------------------------------------------------------|
|                                                                           |
|---------------------------------------------------------------------------|
|---------------------------------------------------------------------------|
|--7--10---------------------------7h8h10p8p7-------------------------------| Lead Guitar 2
|---------8--7---10----------------------------10--8p7h8h10p8p7-------------|
|---------------------8--10~--------------------------------------10~~------|
|---------------------------------------------------------------------------|


Tuning: E standard ( E A D G B E )

Guitar Solo - 1:31 

|----------------------------------------------------------------------|
|-------------9--8-----------------------------------------------------|
|--10~~---10--------8--------------------------------------------------|
|----------------------8--------------8--------------------------------|
|-------------------------11--10--11-----10--11~---8--11--10h11p10-----|
|----------------------------------------------------------------------|

|----------------------------------------------------------------------|
|------------------------------------------------16--------------------|
|---------------------------------------13--15---15b(17)r15--13--12----|
|----------------------------------/15---------------------------------|
|--8--11--10h11p10--8------8~~-----------------------------------------|
|----------------------11----------------------------------------------|

|----------------------------------------------------------16------16--|
|--------------------------------------------------------------13------|
|--13--12~~\----13--12--13--------13--12--13--15~--13--15--------------|
|---------------------------15~----------------------------------------|
|----------------------------------------------------------------------|
|----------------------------------------------------------------------|

|--15------15--13------------------------------------------------------|
|------13----------16--13--------------------14------------------------|
|--------------------------15--13--15b(17)-------15b(17)r15---12~~~----|
|----------------------------------------------------------------------|
|----------------------------------------------------------------------|
|----------------------------------------------------------------------|

|------------|
|------------|
|------------|
|--5---------|
|--5---------|
|--3---------|

Classical Guitar Solo - 2:11

|-----8-------------------------8--8--8--------------------------------|
|--11-----11--9--8------------11---------11--9/11--9h11p9--8--8/9------|
|-------------------10-------------------------------------------------|
|-----------------------10---------------------------------------------|
|----------------------------------------------------------------------|
|----------------------------------------------------------------------|

|-----8-----------------------8--8--11--11--9h11p9--8------------------|
|--11----11--9--8--9-------11--------------------------11--9--11-------|
|---------------------10-----------------------------------------------|
|----------------------------------------------------------------------|
|----------------------------------------------------------------------|
|----------------------------------------------------------------------|

|--8--11---------------------------------------------------------------|
|---------9--8----11---------------------------------------------------|
|---------------------8--10--------------------------------------------| Nylon Guitar
|----------------------------------------------------------------------|
|----------------------------------------------------------------------|
|----------------------------------------------------------------------|
|                                                                      |
|-/8--11--------------------------8h9h11p9p8---------------------------|
|---------9--8----11--------------------------11-9p8h9h11p9p8----------|
|---------------------8--10~-----------------------------------10~~----| Lead Guitar 1
|----------------------------------------------------------------------|
|----------------------------------------------------------------------|
|----------------------------------------------------------------------|
|                                                                      |
|----------------------------------------------------------------------|
|----------------------------------------------------------------------|
|--5--8---------------------------5h6h8p6p5----------------------------| Lead Guitar 2
|---------6--5---8---------------------------8--6p5h6h8p6p5------------|
|---------------------6--8~-----------------------------------8~~------|
|----------------------------------------------------------------------|





Comments


Popular Sentenced tabs & chords
Drown Together Bass Tabs
Farewell Bass Tabs
Lower The Flags Bass Tabs
Noose Bass Tabs
The Luxary Of A Grave Bass Tabs
Drown Together Tabs
Excuse Me While I Kill Myself Tabs
Mourn Tabs
One With Misery Tabs
Vengeance Is Mine 2 Ukulele


Song lyrics



↑ Back to top | Tablatures and chords are parodies/interpretations of the original songs. You may use it for private study, scholarship, research or language learning purposes only
© 2014 AZChords.com Contact us | Privacy policy | DMCA | Add/correct tabs | Request tabs | Top 50 tabs