» » »

Sentenced, Everything Is Nothing Bass tabs (ver.1)

Artists:  A B C D E F G H I J K L M N O P Q R S T U V W X Y Z # 

Everything Is Nothing Bass tabs (ver.1)

Sentenced Tabs
Rating:
0/5 (0 votes)
Everything Is Nothing lessons Tabs too difficult? Try these video lessons and learn fast
                tune down

F||------------------|------------------|------------------|------------------|
C||------------------|------------------|------------------|------------------|
G||------------------|------------------|------------------|------------------|
D||------------------|------------------|------------------|------------------|


                                                                            
------------------|------------------|------------------|------------------|
------------------|------------------|------------------|------------------|
------------------|------------------|------------------|------------------|
------------------|------------------|------------------|------------------|


                                                                            
------------------|------------------|------------------|------------------|
------------------|------------------|------------------|------------------|
------------------|------------------|------------------|------------------|
------------------|------------------|------------------|------------------|


                                                                              4x
|-------------------|------------------|------------------|-------------------||
|*------------------|------------------|------------------|------------------*||
|*------------------|------------------|------------------|------------------*||
|-------------------|------------------|------------------|-------------------||


                                                                            
------------------|------------------|------------------|------------------|
------------------|------------------|------------------|------------------|
------------------|------------------|------------------|------------------|
------------------|------------------|------------------|------------------|


                                                                 
---------------------|--------------------|---------------------|
---------------------|--------------------|---------------------|
--7--7------------2--|--3----3------------|--5--5---------------|
---------------------|--------------------|------------------5--|


                                                                    
------------------------|---------------------|--------------------|
----------------5-------|---------------------|--------------------|
--5-----5------------5--|--7--7------------2--|--3----3------------|
-----5-----5------------|---------------------|--------------------|


                                                                     
---------------------|------------------------|---------------------|
---------------------|------------------------|---------------------|
--5--5---------------|--5-----5---------------|--7--7------------2--|
------------------5--|-----5-----5----3----2--|---------------------|


                                                                    
--------------------|---------------------|------------------------|
--------------------|---------------------|-----------4--5--7------|
--3----3------------|--5--5---------------|--5-----5---------------|
--------------------|------------------5--|-----5------------------|


                                                                 
---------------------|--------------------|---------------------|
---------------------|--------------------|---------------------|
--7--7------------2--|--3----3------------|--5--5---------------|
---------------------|--------------------|------------------5--|


                                                               
------------------------|------------------|------------------|
------------------------|------------------|------------------|
--5-----5---------------|------------------|------------------|
-----5-----5----3----2--|------------------|------------------|


                                                                            
------------------|------------------|------------------|------------------|
------------------|------------------|------------------|------------------|
------------------|------------------|------------------|------------------|
------------------|------------------|------------------|------------------|


                                                                            
------------------|------------------|------------------|------------------|
------------------|------------------|------------------|------------------|
------------------|------------------|------------------|------------------|
------------------|------------------|------------------|------------------|


                                                            
------------------|------------------|---------------------|
------------------|------------------|---------------------|
------------------|------------------|--7--7------------5--|
------------------|------------------|---------------------|


                                                                 
--------------------|----------------------|--------------------|
--------------------|----------------------|--------------------|
--7----7------------|--5--5--5-------------|--5----5------------|
--------------------|-------------------5--|--------------------|


                                                                    
----------------------|--------------------|-----------------------|
----------------------|--------------------|-----------------------|
--3--3--3----------2--|--3----3------------|-----------------------|
----------------------|--------------------|--5--5--5--------5--5--|


                                                                      
--------------------------|---------------------|--------------------|
--------------------------|---------------------|--------------------|
--------------------------|--7--7------------5--|--7----7------------|
--5--5--5--5--5--5--5--5--|---------------------|--------------------|


                                                                   
----------------------|--------------------|----------------------|
----------------------|--------------------|----------------------|
--5--5--5-------------|--5----5------------|--3--3--3----------2--|
-------------------5--|--------------------|----------------------|


                                                                       
--------------------|----------------------|--------------------------|
--------------------|----------------------|--------------------------|
--3----3------------|----------------------|--7--7--7/-5--7--7--7/-5--|
--------------------|--7--7--7----7--------|--------------------------|


                                                               
--------------------|--------------------|--------------------|
--------------------|--------------------|--------------------|
--------------------|--5----5------------|--------------------|
--0----0------------|--------------------|--5----5------------|


                                                                           
-------------------------|-----------------------|------------------------|
-------------------------|-----------------------|------------------------|
--7----7--7--5--7--------|--3----3----3----3--3--|--3---------------------|
-------------------12/---|-----------------------|-----5--5----5----5--5--|


                                                                         
------------------------|--------------------------|--------------------|
------------------------|--------------------------|--------------------|
------------------------|--------------------------|--------------------|
--5--7--7----7----7--7--|--7--7--7--7--7--7--7--7--|--0----0------------|


                                                                    
--------------------|--------------------|-------------------------|
--------------------|--------------------|-------------------------|
--5----5------------|--------------------|--7----7--7--5--7--------|
--------------------|--5----5------------|-------------------12/---|


                                                                          
-----------------------|------------------------|------------------------|
-----------------------|------------------------|------------------------|
--3----3----3----3--3--|--3---------------------|------------------------|
-----------------------|-----5--5----5----5--5--|--5--7--7----7----7--7--|


                                                                     
--------------------------|--------------------|--------------------|
--------------------------|--------------------|--------------------|
--------------------------|--------------------|--5----5------------|
--7--7--7--7--7--7--7--7--|--0----0------------|--------------------|


                                                                       
--------------------|-------------------------|-----------------------|
--------------------|-------------------------|-----------------------|
--------------------|--7----7--7--5--7--------|--3----3----3----3--3--|
--5----5------------|-------------------12/---|-----------------------|


                                                                             
------------------------|------------------------|--------------------------|
------------------------|------------------------|--------------------------|
--3---------------------|------------------------|--------------------------|
-----5--5----5----5--5--|--5--7--7----7----7--7--|--7--7--7--7--7--7--7--7--|


                                                               
--------------------|--------------------|--------------------|
--------------------|--------------------|--------------------|
--------------------|--5----5------------|--------------------|
--0----0------------|--------------------|--5----5------------|


                                                                           
-------------------------|-----------------------|------------------------|
-------------------------|-----------------------|------------------------|
--7----7--7--5--7--------|--3----3----3----3--3--|--3---------------------|
-------------------12/---|-----------------------|-----5--5----5----5--5--|


                                                                         
------------------------|--------------------------|--------------------|
------------------------|--------------------------|--------------------|
------------------------|--------------------------|---------------5----|
--5--7--7----7----7--7--|--7--7--7--7--7--7--7--7--|--0-----------------|


                                                                                
-------------------|-------------------|------------------|--------------------|
-------------------|-------------------|------------------|--------------------|
--3----------------|--5----------------|------------------|--7------------5----|
-------------------|-------------------|------------------|--------------------|


                                                                              
-------------------|-------------------|------------------|------------------|
-------------------|-------------------|------------------|------------------|
--3----------------|--2----------------|------------------|------------------|
-------------------|-------------------|------------------|------------------|


                                                                            
------------------|------------------|------------------|------------------|
------------------|------------------|------------------|------------------|
------------------|------------------|------------------|------------------|
------------------|------------------|------------------|------------------|


                                                                             
------------------|------------------|------------------|------------------||
------------------|------------------|------------------|------------------||
------------------|------------------|------------------|------------------||
------------------|------------------|------------------|------------------||
            

comments powered by Disqus
↑ Back to top | Sentenced Bass for Everything Is Nothing. Lyrics for acoustic guitar and electric guitar. Tablatures and chords are parodies/interpretations of the original songs. You may use it for private study, scholarship, research or language learning purposes only