» » »

End Of The Road Bass tabs (ver.1)

Artists:  A B C D E F G H I J K L M N O P Q R S T U V W X Y Z # 

End Of The Road Bass tabs (ver.1)

Sentenced
Rating:
0/5 (0 votes)

Hard to play? Try these video lessons and learn fast.
                “End of The Road” – Sentenced
Tuning: D,C,G,F

Rest until 

Interlude 1
|-0-0-0-0-0-0-0------------------------------------------------------|
|------------------3-3-3-3-3-3-3-3-3-2-2-2-2-2-2-2-1-1-1-1-1-1-1-1-1-|
|--------------------------------------------------------------------|
|--------------------------------------------------------------------|

|-0-0-0-0-0-0-0-------------------------------------------------------------|
|------------------3-3-3-3-3-3-3-3-3-2-2-2-2-2-2-2-1-1----------------------|
|-------------------------------------------------------------3-3-3-3-3-3---|
|---------------------------------------------------------------------------|

|--------------------------------------------------------|
|--------------------0-0-0-0-0-0-0-0-0-0-0-0-0-0-0-0-----|
|-3-3-3-3-3-3-3-3----------------------------------------|
|--------------------------------------------------------|

Verse 2 (whole notes)
|-0-------------0--------------------0------------------0------------------------|
|---3-------0------3-------0---1--------1---------1------------------0-0----0-0--|
|-------3--------------3-------------------------------------3-------------------|
|----------------------------------------------3---------------------------------|

Chorus
|-0-0-0---------------------------------------------0-0-0---3-6-3--------------------------------|
|----------3-3-3-3---3-3---3-3-----------0---0--------------------3---3-3---3---3-------------0-0|
|----------------------------------3---3------------------------------------------------3---3----|
|------------------------------------------------------------------------------------------------|

Interlude 2
|--------------------------------------0---0-0-0---0-0------------------------------------|
|-1---1-1-1---1-1-3---3-3-3---3-3----------------------3---3-3-3---1-0-1---1-1-1---1-1-3--|
|-----------------------------------------------------------------------------------------|
|-----------------------------------------------------------------------------------------|

|---------------3-3-8-3-2-2-6-2-0-0-0---------|
|-3-3-3---3-3---------------------------3-3-3-|
|---------------------------------------------|
|---------------------------------------------|


|--------------------------------------0---0-0-0---0-0-------------------------------------|
|-1---1-1-1---1-1-3---3-3-3---3-3-----------------------3---3-3-3---1-0-1---1-1-1---1-1-3--|
|------------------------------------------------------------------------------------------|
|------------------------------------------------------------------------------------------|

|-------------------|
|-3-3-3---3-3-------|
|-------------------|
|----------------3~-|

Rest

Interlude 3
|--------------------------------------------------------------------------------------|
|--------------------------------3-3---3-3-3---3-3---3-3-3---1-1---1-1-1---1-1---1-1-1-|
|--------------------------------------------------------------------------------------|
|-3-3---3-3-3---3-3---3-3-3------------------------------------------------------------|

|-0-0---0-0-0---0-0---0-0-0---0-0---0-0-0---0-0---0-0-0------------------------------------|
|----------------------------------------------------------------3-3---3-3-3---3-3---3-3-3-|
|------------------------------------------------------------------------------------------|
|------------------------------------------------------------------------------------------|

|-------------------------------0-0-0-0-0-0-0-0-0-0-0-0-0-0-0-0-|
|-1-1---1-1-1---1-1---1-1-1-------------------------------------|
|---------------------------------------------------------------|
|---------------------------------------------------------------|

Solo x2 (on repeat play two sets of 0’s and play 2 sets of 0’s after the 1’s on repeat)
|-0-0---0-0-0---0-0---0-0-0-----------------------------------------------------------|
|-------------------------------3-3---3-3-3---3-3---3-3-3---1-1---1-1-1---1-1---1-1-1-|
|-------------------------------------------------------------------------------------|
|-------------------------------------------------------------------------------------|

Interlude 4 (Play first bar of Interlude 3) then

|-0-0---0-0-0---0-0---0-0-0---------------------------------------------------------------|
|---------------------------------------------------------------3-3---3-3-3---3-3---3-3-3-|
|--------------------------------1-1---1-1-1---1-1---1-1-1--------------------------------|
|-----------------------------------------------------------------------------------------|

|----------------------------------0-0---0-0-0---0-0---0-0-0------------------------------|
|-------------------------3-0-3-----------------------------------------------------------|
|-3-3---3-3-3---1-0---------------------------------------------1-1---1-1-1---1-1---1-1-1-|
|----------------------3------------------------------------------------------------------|

|------------------------------------------------------------------------|
|-3-3---3-3-3---3-3---3-3-3----------------------------3-0-3-------------|
|--------------------------------3-3---3-3-3---1-0-----------------------|
|----------------------------------------------------3------------3~-----|
            
Hard to play? Try these video lessons and learn fast. | Correct




comments powered by Disqus
↑ Back to top | Tablatures and chords are parodies/interpretations of the original songs. You may use it for private study, scholarship, research or language learning purposes only