» » »

Blood & Tears Bass tabs (ver.1)

Artists:  A B C D E F G H I J K L M N O P Q R S T U V W X Y Z # 

Blood & Tears Bass tabs (ver.1)

Sentenced
Rating:
0/5 (0 votes)

Hard to play? Try these video lessons and learn fast.
                “Blood and Tears” – Sentenced

Standard Tuning

Rest

Intro
|---------------------------|------------------------------------------------------|
|---------------2-2-2-2-----|------------------------------------------------------|
|-5-5-5-4-5-----------------|---------------0---0-0-0-----------------2---2-2-2----|
|---------------------------|----2-2-2-0-----------------0-0-0-0-------------------|

Repeat the 2nd bar then the 1st

Verse
|----------------------------------------------------------------|
|----------------------------------------------------------------|
|-------------------------------2---2-2-2---2-2---2-2---2-2-0----|
|--2-2-2-2-0----0-0-0-0----------------------------------------4-|

|-------------------------------------------------------------------|
|-------------------------------------------------------------------|
|-------------------------------2---2-2-2---2-2---2-2---0-2-4-------|
|--2-2-2-2-0----0-0-0-0----------------------------------------5--4-|

|--------------------------------------------------------|
|--------------------------------------------------------|
|------------------------2---2-2-2---2-2---2-2---2-2-2-2-|
|--2-2-2-2-0----0-0-0-0----------------------------------|

Pre-Chorus
|-------------------------------------------|
|-------------------------------------------|
|----------------------2-2-2-2—0-0--------0-|
|-0-0-0-0-0-0-0-0--------------------4-4----|

Chorus = Intro 2 x2 Then Intro 1 x1

Verse

Chorus

End  of Chorus 2
|-----------------------------------------------------------------------|
|-----------------------------------------------------------------------|
|-7-7---7-7-7-7------------------0-0-0-0----5-5-5-4-5-2-2-2-2-2-2-------|
|----------------------2-2-2---0-------------------------------------2~-|

Break
|-------------------------------------------|
|-------------------------------------------|
|--------------------------2-2--------------|
|-2~-------2-2---0-0------------2-2---2-2-2-|

Pre-Chorus

Chorus x2------------------------------------------------------
Intro bar 1 then just the 7’s at the end of chorus ----Play both of these x2

Then play end of chorus in full x2 but on 2nd repeat don’t play the first 7’s 
 
            
Hard to play? Try these video lessons and learn fast. | Correct




comments powered by Disqus
↑ Back to top | Tablatures and chords are parodies/interpretations of the original songs. You may use it for private study, scholarship, research or language learning purposes only