» » »

Selena Gomez, I Promise You Tabs (ver.2)

Artists:  A B C D E F G H I J K L M N O P Q R S T U V W X Y Z # 

I Promise You Tabs (ver.2)

Selena Gomez Tabs
 Rating:
4/5 (4 votes)
I Promise You lessons Tabs too difficult? Try these video lessons and learn fast
1
                Tuning: Standard


Intro:
e|------------|
B|------------|
G|----8-------|
D|-4--8--6—-2-|
A|-4--6--6—-2-|
E|-2-----4--0-|

Verse:
e|------------|
B|------------|
G|----8-------|
D|-4--8--6—-2-|
A|-4--6--6—-2-|
E|-2-----4--0-| x2

Prechorus:
e|------------------|
B|------------------|
G|-----------4------|
D|--6--4--6--4--4---|
A|--6--4--6--2--4---|
E|--4--2--4-----2---| 

Chorus:
e|-------------------|
B|-------------------|
G|----4--------4-----|
D|-2--4--4--2--4--4--|
A|-2--2--4--2--2--4--|
E|-0-----2--0-----2--| x2


Postchorus:
e|------------|
B|------------|
G|----8-------|
D|-4--8--6—-2-|
A|-4--6--6—-2-|
E|-2-----4--0-|

Verse:
e|------------|
B|------------|
G|----8-------|
D|-4--8--6—-2-|
A|-4--6--6—-2-|
E|-2-----4--0-| x2

Prechorus:
e|------------------|
B|------------------|
G|-----------4------|
D|--6--4--6--4--4---|
A|--6--4--6--2--4---|
E|--4--2--4-----2---| 

Chorus:
e|-------------------|
B|-------------------|
G|----4--------4-----|
D|-2--4--4--2--4--4--|
A|-2--2--4--2--2--4--|
E|-0-----2--0-----2--| x2

Bridge:
e|--------------------------|
B|--------------------------|
G|-----4-----------4--6--8--|
D|--6—-4—-2—-4—-6—-4-—6—-8--|
A|--6—-2—-2—-4—-6--2—-4—-6—-|
E|--4-----0—-2--4-----------| 

Chorus:
e|-------------------|
B|-------------------|
G|----4--------4-----|
D|-2--4--4--2--4--4--|
A|-2--2--4--2--2--4--|
E|-0-----2--0-----2--| x2

Outro
e|-------------------|
B|-------------------|
G|----4--------4-----|
D|-2--4--4--2--4--4--|
A|-2--2--4--2--2--4--|
E|-0-----2--0-----2--| 

e|----------------|
B|----------------|
G|-4--8--------4--|
D|-4--8--6--2--4--|
A|-2--6--6--2--2--|
E|-------4--0-----| 
            
Submit corrections

comments powered by Disqus
↑ Back to top | Selena Gomez Tabs for I Promise You. Lyrics for acoustic guitar and electric guitar. 1 Tablatures and chords are parodies/interpretations of the original songs. You may use it for private study, scholarship, research or language learning purposes only