» » »

Selena Gomez, I Promise You Tabs (ver.1)

Artists:  A B C D E F G H I J K L M N O P Q R S T U V W X Y Z # 

I Promise You Tabs (ver.1)

Selena Gomez Tabs
 Rating:
4.6/5 (10 votes)
I Promise You lessons Tabs too difficult? Try these video lessons and learn fast
1
                Selena Gomez & The Scene -  I Promise You

ever check my email...



INTRO AND VERSE
e|---7-------6-------4--------7------|
B|---7-------6-------4--------7------|
G|---8-------8-------4--------9------|
D|---9-------8-------6--------9------|
A|---9-------6-------6--------7------|
E|---7---------------4---------------|
1X FOR INTRO
2X FOR VERSE

PRE-CHORUS
e|-------------------------------------------------------|
B|-------------------------------------------------------|
G|---------4-------6-------4------6----------------------|
D|---6-----4-------6-------4------6----------------------|
A|---6-----2-------4-------2------4----------------------|
E|---4---------------------------------------------------|


CHORUS
e|----------------------------------------------------|
B|----------------------------------------------------|
G|-----9----------4-----------------------------------|
D|-----9----------4----------4------------------------|   4X
A|-----7----------2----------4------------------------|
E|---------------------------2------------------------|


REPEAT VERSE
REPEAT PRE-CHORUS
REPEAT CHORUS

BRIDGE
e|---------------------------------------------------|
B|---------------------------------------------------|
G|------------4-----------------------4----6----8----|
D|------6-----4-----2------4-----6----4----6----8----|
A|------6-----2-----2------4-----6----2----4----6----|
E|------4-----------0------2-----4-------------------|

REPEAT CHORUS

GUITAR 2

INTRO AND AFTER CHORUS AND OUTRO
e|--7-----7/9---11-----6-----6/7--9-----7--------7/9--11---------12--11----|
B|-----7-----------------------------------9---------------11/12-----------|
G|------------------------8-------------------8----------------------------|
D|-------------------------------------------------------------------------|
A|-------------------------------------------------------------------------|
E|-------------------------------------------------------------------------|

e|---9----7----6---6h7p6---4--------------------------------|
B|-------------------------------7----5---------------------|
G|----------------------------------------------------------|
D|----------------------------------------------------------|
A|----------------------------------------------------------|
E|----------------------------------------------------------|

PRECHORUS
e|---7--------7--------9----------7-----------9---------------|
B|------9---------7---------9---------9-------7---------------|
G|------------------------------------------------------------|
D|------------------------------------------------------------|
A|------------------------------------------------------------|
E|------------------------------------------------------------|


CHORUS
e|---------------9---------------------|
B|----12-------------------------------|
G|----------11---------11--------------|   2x
D|-------------------------------------|
A|-------------------------------------|
E|-------------------------------------|

e|---------------9---------------------|
B|----11-------------------------------|
G|----------11---------11--------------|   2x
D|-------------------------------------|
A|-------------------------------------|
E|-------------------------------------|


BRIDGE
e|--------11---------------11------------------11-------------11---------|
B|-12--------------12-------------------12-------------12----------------|
G|-----13-----13--------13-----13----------11-----11-------11----11------|
D|-----------------------------------------------------------------------|
A|-----------------------------------------------------------------------|
E|-----------------------------------------------------------------------|

e|----------12----------------12---------12---11---9---------------------|
B|--12---------------12--------------------------------11----------------|
G|------11-----11---------11-------11------------------------------------|
D|-----------------------------------------------------------------------|
A|-----------------------------------------------------------------------|
E|-----------------------------------------------------------------------|

e|--------11---------------11------------------11-------------11---------|
B|-12--------------12-------------------12-------------12----------------|
G|-----13-----13--------13-----13----------11-----11-------11----11------|
D|-----------------------------------------------------------------------|
A|-----------------------------------------------------------------------|
E|-----------------------------------------------------------------------|

e|-----------13----------------13-------------11--11--11--11--11----------|
B|-14----------------14-------------------------11--11--11--11------------|
G|-----13-------13--------13---------13-----------------------------------|
D|------------------------------------------------------------------------|
A|------------------------------------------------------------------------|
E|------------------------------------------------------------------------|
            
Submit corrections

comments powered by Disqus
↑ Back to top | Selena Gomez Tabs for I Promise You. Lyrics for acoustic guitar and electric guitar. 1 Tablatures and chords are parodies/interpretations of the original songs. You may use it for private study, scholarship, research or language learning purposes only