>
 >
As A Blonde 1

As A Blonde 1 Guitar Tabs

Selena Gomez - As A Blonde 1 chords, tabs, tablatures, lyrics

Guitar lessons | Add/correct | Request | Top 50 tabs Artists:  A B C D E F G H I J K L M N O P Q R S T U V W X Y Z 0-9

As A Blonde 1 Guitar Tabs – Selena Gomez

CD, Sheet music, Poster

Do you like As A Blonde 1? Share with your friends now
ChordsTabsTabs v2Ukulele

Standard tuning

p.m.: palm mute
h: hammer on
p: pull off


VERSE (1 and 2)

  C
e|----------|
B|----------|
G|----------|  x 15     (all downstrokes)
D|-55555555-|
A|-33333333-|
E|----------|

 p.m.----->

  C
e|---|
B|---|
G|-5-|
D|-5-|
A|-3-|
E|---|


CHORUS (1 and 2)

   A        F        C                G                C
e|----------------------------------------------------------------------|
B|----------------------------------------------------------------------|
G|-------------------5555555555555555------------------5555555555555555-|
D|-77777777-33333333-5555555555555555-5555555555555555-5555555555555555-|
A|-77777777-33333333-3333333323333333-5555555555555555-3333333323333333-|
E|-55555555-11111111------------------3333333333333333------------------|

   A        F        C                G        F
e|------------------------------------------------------|
B|------------------------------------------------------|
G|-------------------5555555555555555-------------------|
D|-77777777-33333333-5555555555555555-55555555-3xxxxxxx-|
A|-77777777-33333333-3333333323333333-55555555-3xxxxxxx-|
E|-55555555-11111111------------------33333333-1xxxxxxx-|


PREVERSE

  C
e|----------|
B|----------|
G|----------|  x 3
D|-55555555-|
A|-33333333-|
E|----------|

  p.m.----->


BRIDGE
(for those who are interested; I had to figure this out by ear, so it's definitely not perfect,
but it gives you an idea. Feel free to try and figure it out for yourself)

e|--------8-----------------8---------------7---------------7--------|
B|----------------------------------------8----8--8-------8----8--8--|
G|-9h10p9-----10--9--9h10p9----10--9----7---------------7------------|
D|------------------------------------0---------------0--------------|
A|-------------------------------------------------------------------|
E|-------------------------------------------------------------------|


e|--------8-----------------8----------------8----------------8--------|
B|---------------------------------------------------------------------|
G|-9h10p9-----10--9--9h10p9----10--9--9h10p9----10--9--9h10p9----10--9-|
D|---------------------------------------------------------------------|
A|---------------------------------------------------------------------|
E|---------------------------------------------------------------------|


e|--------8----------------12------12------12------|
B|-----------------------------10------10------10--|
G|-9h10p9----10--9--9h10p9-------------------------|
D|-------------------------------------------------|
A|-------------------------------------------------|
E|-------------------------------------------------|


PRECHORUS

  C
e|----------|
B|----------|
G|----------|  x 3
D|-55555555-|
A|-33333333-|
E|----------|

  p.m.----->


CHORUS 3


   B        G        D                A                D
e|----------------------------------------------------------------------|
B|----------------------------------------------------------------------|
G|-------------------7777777777777777------------------7777777777777777-|
D|-99999999-55555555-7777777777777777-7777777777777777-7777777777777777-|
A|-99999999-55555555-5555555545555555-7777777777777777-5555555545555555-|
E|-77777777-33333333------------------5555555555555555------------------|

   B        G        D                A
e|------------------------------------------------------|
B|------------------------------------------------------|
G|-------------------7777777777777777-------------------|
D|-99999999-55555555-7777777777777777-7777777777777777--|
A|-99999999-55555555-5555555545555555-7777777777777777--|
E|-77777777-33333333------------------5555555555555555--|

OUTRO

   G                B
e|-----------------------------------|
B|-----------------------------------|
G|-----------------------------------|
D|-5555555555555555-9999999999999999-|
A|-5555555555555555-9999999999999999-|
E|-3333333333333333-7777777777777777-|

   G        A       D
e|--------------------|
B|--------------------|
G|------------------7-|
D|-55555555-7777----7-|
A|-55555555-7777----5-|
E|-33333333-5555------|

SONG PROGRESSION:

verse 1
chorus 1
preverse
verse 2
chorus 2
bridge
prechorus
chorus 3 (x2)
outro


For the C chord in the 1st and 2nd chorus and the D chord in the 3rd chorus:
slide your index finger down and up again (5-4-5 and 7-6-7). (You can do this more than 
time, or not at all if you think it's a little hard).

(example (A string): 2333333323333333 or: 3333333323332333 or: 2333233323332333 ...)


Enjoy!





Comments


Popular Selena Gomez tabs & chords
Naturally Bass Tabs
Stop And Erase 2 Bass Tabs
Everything Is Not What It Seems Chords
I Promise You 1 Chords
Make It Happen Chords
Shake It Up 1 Chords
Spotlight Intro Chords
Tell Me Something I Don't Know Tabs
Disappear Ukulele
Sick Of You Ukulele


Song lyrics



↑ Back to top | Tablatures and chords are parodies/interpretations of the original songs. You may use it for private study, scholarship, research or language learning purposes only
© 2014 AZChords.com Contact us | Privacy policy | DMCA | Add/correct tabs | Request tabs | Top 50 tabs