» » »

Selena Gomez, As A Blonde Tabs (ver.1)

Artists:  A B C D E F G H I J K L M N O P Q R S T U V W X Y Z # 

As A Blonde Tabs (ver.1)

Selena Gomez Tabs
 Rating:
4/5 (4 votes)
As A Blonde lessons Tabs too difficult? Try these video lessons and learn fast
1
                Tuning: Standard


Verse:
e|-----|
B|-----|
G|--5--|
D|--5--|
A|--3--|
E|-----|

Chorus:
e|------------------------------|
B|------------------------------|
G|----------------5-------------|
D|--7------4------5-(x4)-5------|
A|--7-(x4)-4-(x4)-3------5-(x2)-|
E|--5------2-------------3------| 

e|-----------------------|
B|-----------------------|
G|--5-------------5------|
D|--5-(x2)-5------5-(x8)-|
A|--3------5-(x8)-3------|
E|---------3-------------| 

e|------------------------------|
B|------------------------------|
G|----------------5-------------|
D|--7------4------5-(x4)-5------|
A|--7-(x4)-4-(x4)-3------5-(x2)-|
E|--5------2-------------3------| 

e|--------------------------|
B|--------------------------|
G|--5--------------------5--|
D|--5-(x2)-5------4------5--|
A|--3------5-(x8)-4—(x8)-3--|
E|---------3------2---------| 

Verse:
e|-----|
B|-----|
G|--5--|
D|--5--|
A|--3--|
E|-----|

Chorus:
e|------------------------------|
B|------------------------------|
G|----------------5-------------|
D|--7------4------5-(x4)-5------|
A|--7-(x4)-4-(x4)-3------5-(x2)-|
E|--5------2-------------3------| 

e|-----------------------|
B|-----------------------|
G|--5-------------5------|
D|--5-(x2)-5------5-(x8)-|
A|--3------5-(x8)-3------|
E|---------3-------------| 

e|------------------------------|
B|------------------------------|
G|----------------5-------------|
D|--7------4------5-(x4)-5------|
A|--7-(x4)-4-(x4)-3------5-(x2)-|
E|--5------2-------------3------| 

e|--------------------------|
B|--------------------------|
G|--5--------------------5--|
D|--5-(x2)-5------4------5--|
A|--3------5-(x8)-4—(x8)-3--|
E|---------3------2---------| 

Bridge (strum once)
e|-----------------------|
B|-----------------------|
G|--------------5--------|
D|--4-5-5-7-7-2-5-4-5-2--|
A|--4-5-5-7-7-2-3-4-5-2--|
E|--2-3-3-5-5-0---2-3-0--| 

e|-----|
B|-----|
G|--5--|
D|--5--|
A|--3--|
E|-----| (till the chorus)

Chorus:
e|------------------------------|
B|------------------------------|
G|--4-------------7-------------|
D|--4-(x4)-5------7-(x4)-7------|
A|--2------5-(x4)-5------7-(x2)-|
E|---------3-------------5------| 

e|-----------------------|
B|-----------------------|
G|--7-------------7------|
D|--7-(x2)-7------7-(x8)-|
A|--5------7-(x8)-5------|
E|---------5-------------| 

e|------------------------------|
B|------------------------------|
G|--4-------------7-------------|
D|--4-(x4)-5------7-(x4)-7------|
A|--2------5-(x4)-5------7-(x2)-|
E|---------3-------------5------| 

e|-----------------|
B|-----------------|
G|--7--------------|
D|--7-(x2)-7-------|
A|--5------7-(x8)--|
E|---------5-------| x2

 Outro:
e|-----|
B|-----|
G|-----|
D|--5--|
A|--5--|
E|--3--| x16

e|-----|
B|-----|
G|--7--|
D|--7--|
A|--5--|
E|-----| x16

e|-----|
B|-----|
G|-----|
D|--5--|
A|--5--|
E|--3--| x10

e|--------|
B|------7-|
G|------7-|
D|--7-7-5-|
A|--7-7---|
E|--5-5---|
            
Submit corrections

comments powered by Disqus
↑ Back to top | Selena Gomez Tabs for As A Blonde. Lyrics for acoustic guitar and electric guitar. 1 Tablatures and chords are parodies/interpretations of the original songs. You may use it for private study, scholarship, research or language learning purposes only