» » »

Secondhand Serenade, Fall For You Tabs (ver.1)

Artists:  A B C D E F G H I J K L M N O P Q R S T U V W X Y Z # 

Fall For You Tabs (ver.1)

Secondhand Serenade Tabs
 Rating:
3.7/5 (6 votes)
Fall For You lessons Tabs too difficult? Try these video lessons and learn fast
                

(Actually, the tab part of this song is done in keyboard but,
 I don’t know how to play keyboard so I transpose it to guitar)hehehe...
u want to ask about this tab... GoOd LuCk..^_^


Tuning: Standard

Verse: 1

     Am        F         C         G 
E|---15--------13--------12--------10--------------|
B|---13--------13--------13--------12------12-13---|
G|---------------------------------------12--------|
D|-------------------------------------------------|
A|-------------------------------------------------|
E|-------------------------------------------------|

     Am        F         C         G              F       G
E|---15--------13--------12---13---10-------------13--13--12--12-----|
B|---13--------13--------13--------12------12-13--13--13--13--13-----|
G|---------------------------------------12---------12--12--12--12---|
D|-------------------------------------------------------------------|
A|-------------------------------------------------------------------|
E|-------------------------------------------------------------------|


Chorus:

   C                  Am                F                 G    
E|-12---12--12--12----12---12--12--12---13---13--13--13---10---10--10—-10--|
B|-13---13--13--13----13---13--13--13---13---13--13--13---12---10—-10--10--|
G|-12-12--12--12--12--14-14--14--14--14-14-14--14--14--14-12-12--12--12--12|
D|-------------------------------------------------------------------------|
A|-------------------------------------------------------------------------|
E|-------------------------------------------------------------------------|

   C                  Am                F                 G     
E|-12---12--12--12----12---12--12--12---13---13--13--13---10---10--10—-10--|
B|-13---13--13--13----13---13--13--13---13---13--13--13---12---10—-10--10--|
G|-12-12--12--12--12--14-14--14--14--14-14-14--14--14--14-12-12--12--12--12|
D|-------------------------------------------------------------------------|
A|-------------------------------------------------------------------------|
E|-------------------------------------------------------------------------|

Am-F-C-G

E|--15----13-------13-15-12---------12-13-------------12---------|
B|------13------10----------------13-----15-------------12-13----|
G|------------10--------------------------------12---------------|
D|-----------8-----------------10-------------12-----------------|
A|---------------------------10-------------10-------------------|
E|--------------------------8------------------------------------|


Verse: 2( do the chords in 1st verse)

This is not what I intended
I always swore to you I'd never fall apart
You always thought that I was stronger
I may have failed, but I have loved you from the start
Ohh, but hold your breath

Chorus:
           C
Because tonight will be the night
             Am                  F
That I will fall for you over again
                      G
Don't make me change my mind
             C
Or I won't live to see another day
     Am
I swear it's true
                F                           G
Because a girl like you is impossible to find
                                   
You're impossible to find

Bridge:
     Am     F      C         
So breathe in so deep
     G     Am       F       C                                
Breathe me in, I'm yours to keep
     G             Am            F         C       
And hold on to your words 'cause talk is cheap
       G            F                                   
And remember me tonight when you're asleep


Chorus:

    C              Am         F            G           
E|--------12-------12---------13------13---10----------|
B|----13--13-------13---------13-----------12----------|
G|--12-------------14-------14-------------12----------|
D|-----------------------------------------------------|
A|-----------------------------------------------------|
E|-----------------------------------------------------|

    C              Am                F                G           
E|--------12---12-------12-------------13---13--------10---|
B|----13--13-13------13-13-13--13------13-13----------12---|
G|--12-------------14---14---14------14---------------12---|
D|---------------------------------------------------------|
A|---------------------------------------------------------|
E|---------------------------------------------------------|

   C            
Tonight will be the night
             Am                   F
That I will fall for you over again
                     G
Don't make me change my mind
             C
Or I won't live to see another day
     Am
I swear it's true
                 F                          G
Because a girl like you is impossible to find
                         C
You're impossible to find



Fall for you Chords:

Verse:

      Am                                         F
The best thing about tonight's that we're not fighting
          C                               G
Could it be that we have been this way before?
          Am                     F
I know you don't think that I am trying
         C                             G
I know you're wearing thin down to the core
    F             G
But hold your breath

Chorus:
           C
Because tonight will be the night
             Am                  F
That I will fall for you over again
                      G
Don't make me change my mind
             C
Or I won't live to see another day
     Am
I swear it's true
                F                           G
Because a girl like you is impossible to find
                         Am-F-C-G           
You're impossible to find

Verse: 2( do the chords in 1st verse)

This is not what I intended
I always swore to you I'd never fall apart
You always thought that I was stronger
I may have failed, but I have loved you from the start
Ohh, but hold your breath

Chorus:
           C
Because tonight will be the night
             Am                  F
That I will fall for you over again
                      G
Don't make me change my mind
             C
Or I won't live to see another day
     Am
I swear it's true
                F                           G
Because a girl like you is impossible to find
                                   
You're impossible to find

Bridge:
     Am     F      C         
So breathe in so deep
     G     Am       F       C                                
Breathe me in, I'm yours to keep
     G             Am            F         C       
And hold on to your words 'cause talk is cheap
       G            F                                   
And remember me tonight when you're asleep

Chorus:
           C
Because tonight will be the night
             Am                  F
That I will fall for you over again
                      G
Don't make me change my mind
             C
Or I won't live to see another day
     Am
I swear it's true
                F                           G
Because a girl like you is impossible to find
                                    
You're impossible to find
   C            
Tonight will be the night
             Am                 F
That I will fall for you over again
                      G
Don't make me change my mind
            C
Or I won't live to see another day
    Am
I swear it's true
               F                             G
Because a girl like you is impossible to find
                        C
You're impossible to find
            
Submit corrections

comments powered by Disqus
↑ Back to top | Secondhand Serenade Tabs for Fall For You. Lyrics for acoustic guitar and electric guitar. Tablatures and chords are parodies/interpretations of the original songs. You may use it for private study, scholarship, research or language learning purposes only