>
 >
Awake

Awake Guitar Tabs

Secondhand Serenade - Awake chords, tabs, tablatures, lyrics

Guitar lessons | Add/correct | Request | Top 50 tabs Artists:  A B C D E F G H I J K L M N O P Q R S T U V W X Y Z 0-9

Awake Guitar Tabs – Secondhand Serenade

CD, Sheet music, Poster

Do you like Awake? Share with your friends now
ChordsChords v2Chords v3Chords v4Chords v5TabsTabs v2Tabs v3Tabs v4Tabs v5Tabs v6UkuleleUkulele v2
Make sure you tune B up to C for this song.  
I made up names for the chords because really 
arenít official names for them. 
Chords come in during the second half of the song. 
The words on top of the notes correspond to the chord change.
There are more tabs like this at:

   B     B2      E      A       C
 |-0-|  |-0-|  |-0-|  |-0-|   |-0-|  e
 |-0-|  |-0-|  |-0-|  |-0-|   |-0-|  c
 |-0-|  |-0-|  |-0-|  |-0-|   |-0-|  g
 |-5-|  |-5-|  |-3-|  |-7-|  |-10-|  D
 |-5-|  |-3-|  |-3-|  |-7-|  |-10-|  A
 |-3-|  |-5-|  |-1-|  |-5-|   |-8-|  E

Intro and 1st verse

E -------------------------------------------------------|
C --------0-------------0------------0-----------0-------|
G ------5----5--------5---5-------4----4-------4--4------|   x2
D ----5---------5---5-------5---5--------5---5------5----|
A --3-------------3-----------0------------0---------0---|
E -------------------------------------------------------|


  every                      eyes
  last                    disguised
E --------------------------------------------------------|
C --------0-------------0------------0-----------0--------|
G ------5----5--------5---5-------4----4-------4--4-------|   x2
D ----5---------5---5-------5---5--------5---5------5-----|
A --3-------------3-----------0------------0----------0---|
E --------------------------------------------------------|

   lying         heart        like
   movies        three        fine
E ---------------------------------------------------------|
C --------0-------------0------------0--------------0------|
G ---------------------------------------------------------|   x2
D -----3------3-------5----5-------7----7--------7----7----|
A ---3----------3---5--------5---7--------7----7--------7--|
E --1-------------3------------5-------------5-------------|


Chorus

   stay         awake         me           donít   miss
   share         air        breathe        give    heart
E --------------------------------------------------------|
C ---------0-------------0-----------0--------------------|
G --------------------------------------------------------|
D ------10---10--------3---3-------5----5--------7----5---|
A ---10---------10---3-------3---5--------5----7-----5----|
E --8--------------1-----------3-------------5------3-----|

                                                                                         
                                                            }x2

 thing                   thing
 string                  thing
--------------------------------------------------|
--------0-----------0----------0----------0-------|
--------------------------------------------------|
------3---3-------3---3------5---5------5---5-----|
----3-------3---3-------3--5-------5--5-------5---|
--1-----------1-----------3----------3------------|

Interlude

E ----------------------------------------------------|
C --------0--------------0------------0------------0--|
G ------5-----4h5------5----4h5------5---4h5-----5----|
D ----5----------5---5---------5---5--------5--5------|
A --3--------------0-------------3-----------0--------|
E ----------------------------------------------------|

2nd Verse
(same as first until strumming comes in)


You're my key to survival.
    E                  B
And if it's a hero you want,
                     A
I can save you. Just stay here.


     E
Your whispers are priceless.
     B                             A
Your breath, it is dear. So please stay near.

(Chorus)
         C    E         B
Will you stay awake for me
  A           B       E
I don't wanna miss anything
                      B
I don't wanna miss anything
       C         E     B
I will share the air I breathe,
     A           B          E
I'll give you my heart on a string,
                           B
I just don't wanna miss anything.


A    E   B
  Say my name. I just want to hear you.
A    E   B
  Say my name. So I know it's true.
       A                   E
You're changing me. You're changing me.
    B
You showed me how to live.
      E            B
So just say. So just say,


            B2   E         B
That you'll stay awake for me.
  A           B       E
I don't wanna miss anything.
                      B
I don't wanna miss anything.
       B2        E     B
I will share the air I breathe,
     A           B          E
I'll give you my heart on a string,
                           B       C
I just don't wanna miss anything





Comments


Popular Secondhand Serenade tabs & chords
A Twist In My Story 8 Chords
Half Alive 2 Chords
Reach For The Sky 2 Chords
So Long 2 Chords
Vulnerable 6 Chords
You And I 5 Chords
Awake 4 Tabs
Broken 1 Tabs
Fix You Intro 1 Tabs
Take Me With You 1 Tabs


Song lyrics



↑ Back to top | Tablatures and chords are parodies/interpretations of the original songs. You may use it for private study, scholarship, research or language learning purposes only
© 2014 AZChords.com Contact us | Privacy policy | DMCA | Add/correct tabs | Request tabs | Top 50 tabs