» » »

Sacred Attention Tabs (ver.2)

Artists:  A B C D E F G H I J K L M N O P Q R S T U V W X Y Z # 

Sacred Attention Tabs (ver.2)

Sebadoh
Rating:
0/5 (0 votes)

Hard to play? Try these video lessons and learn fast.
                Joel Nicholas, Leicester, UK.

the lead on this isn't quite right, but it's up to the standard of most
other tabs on the internet.
the verse and lead parts use three chords which i will call D? E? and
F?. they are: D? - 5 5 7 7 5 5
              E? - 7 7 9 9 7 7
              F? - 8 8 10 10 8 8. 

 the progression is D? F? E? D?. the bridge is D? F? D? F? C? G D?. and
the outro is D#? D? C? D? D#? C? D? F?.

this is the first lead.

e-------------|-------8----|-8-8-8-8-7-|-7h10-10-10-10-8-10-------
B--10-10-8-10-|-10-10---10-|-----------|------------------------
G-------------|------------|-----------|-------------------------

e----------------------------------------------------------------
B-8-8-8-8-8-8-8-8-7-----------------8-8-8-8-7-------------------
G-------------------7-7-7-7-7-7-7-7-----------5-5-5-------------

e---------------------------------------------------------------
B-8-8-8-8-8-8-8-8-7---------------------------------------------
G-------------------4-4-4-5-4-5-4-2-----------------------------


and this is the second (not correct, so you may have to mess around a
little).

e---------------------5-5--5-5-8-7--7-7-10-10-10-13-13-13-13-13-13-
B-3-3-3-3h5-5-5-5h6-6----------------------------------------------
G------------------------------------------------------------------

e-13h15-15-13-13\9-9-9-9h10-10------------------------------------------
B------------------------------10-10-10-10------------------------------
G------------------------------------------6-6-6-6h7-4-4-5-5-5-5-4-2-2-2
            
Hard to play? Try these video lessons and learn fast. | Correct




comments powered by Disqus
↑ Back to top | Tablatures and chords are parodies/interpretations of the original songs. You may use it for private study, scholarship, research or language learning purposes only