>
 >
On Fire

On Fire Guitar Tabs

Sebadoh - On Fire chords, tabs, tablatures, lyrics

Guitar lessons | Add/correct | Request | Top 50 tabs Artists:  A B C D E F G H I J K L M N O P Q R S T U V W X Y Z 0-9

On Fire Guitar Tabs – Sebadoh

CD, Sheet music, Poster

Do you like On Fire? Share with your friends now
Tabs
#------------------------------------------------------------------------------##

on fire (acoustic)
performed by sebadoh
written by lou barlow

the acoustic version of on fire can be found on the rebound cd single.
------------------------------------------------------------------------------
---
[chord chart]
       g    d    b    c
eb|----3----2----x----0--------------------------------------------------------|
bb|----0----3----4----1--------------------------------------------------------|
gb|----0----2----4----0--------------------------------------------------------|
db|----0----0----4----2--------------------------------------------------------|
ab|----2----0----2----3--------------------------------------------------------|
eb|----3----x----x----x--------------------------------------------------------|
-------------------------------------------------------------------------------|
---
[riff 1]
        g            d         b         c
eb|--------3-3-3-3-----2-0-----------------------------------------------------|
bb|--------0-0-0-0---3----3------4-4-4----1-0----------------------------------|
gb|--------0-0-0-0-0-2-----------4-4-4-------0---------------------------------|
db|--------0-0-0-0-0-0---------4-4-4-4-0-2-------------------------------------|
ab|----------------0--------0--2-2-2-2-0-3-------------------------------------|
eb|-----3----------------------------------------------------------------------|
-------------------------------------------------------------------------------|
---

[riff 1] 1x

g                   d
  my opinion could change today
b                   c
  I'm responsible anyway
g                       d
 for second to third-hand information
b                             c
  that complicates the complication

[strum c for another line or so]

g                d
I dont think before I speak
       b                c
and I dont know how far my words reach
g                  d
  so wrong nearly every time
         b                c
that I'm sorry I speak my mind

b                 c
if what I said is unkind

            d                b
and now it feels like I'm on fire
       c                    d
these words are not the truth
                   b
dont hold it against me
         c              d
cause I know youre lying too

d b c d

        g             d
is there any need for apologies
b                           c
  theres no reason to believe
g                      d
judgments born of my jealous mind
b            c
  creeping inside outside
g                       d
connections I've made never follow through
b                         c
and sooner or later disappoint you
g                          d
cross you twice when your back is turned
b                c
  thats how I'll love you

b                       c
and someone has got to be hurt

   d                        b
now it feels like I'm on fire
c                d
it's burning the world through
             b
dont let me fall
        c                  d
without someone to hold onto
c                  d
someone to hold onto
c                  d
someone to hold onto





Comments


Popular Sebadoh tabs & chords
Flame 1 Bass Tabs
Bouquet For A Siren Chords
Flood Chords
Magnet's Coil Chords
Mean Distance Chords
Beauty Of The Ride Tabs
Mean Distance Tabs
Not Too Amused Tabs
Skull Tabs
Soul And Fire Ukulele


Song lyrics



↑ Back to top | Tablatures and chords are parodies/interpretations of the original songs. You may use it for private study, scholarship, research or language learning purposes only
© 2014 AZChords.com Contact us | Privacy policy | DMCA | Add/correct tabs | Request tabs | Top 50 tabs