>
 >
Ocean

Ocean Guitar Tabs

Sebadoh - Ocean chords, tabs, tablatures, lyrics

Guitar lessons | Add/correct | Request | Top 50 tabs Artists:  A B C D E F G H I J K L M N O P Q R S T U V W X Y Z 0-9

Ocean Guitar Tabs – Sebadoh

CD, Sheet music, Poster

Do you like Ocean? Share with your friends now
Tabs
-------------------------------------------------------------------------------
                               OCEAN  Sebadoh
-------------------------------------------------------------------------------

Capo 1st fret

Main riff (shown as G chord below):

e|---------------------3-----------------------------------------------------|
B|---------------------3-----------------------------------------------------|
G|--------0------------0-----------------------------------------------------|
D|------0---2-2-2-0----------------------------------------------------------|
A|----2----------------------------------------------------------------------|
E|--3---------------3--------------------------------------------------------|


       G
So you think you're in the middle of the ocean
G
Stranded on an island of your own
   G
Or stuck on the top of a mountain
       D                Am7            D
Either way you're gonna say you're all alone


      G
And I hesitate to say that you're a liar
  G
I never tell the truth myself
      G
But I tried to chase you down and I got tired
       D              Am7             D
So I'm leaving you to be with someone else


           Em                         G
'Cause you never wanna hook up in the middle
        Em                            G
And I'd meet you there to talk if you would show
        Em                           G
But you answer every question with a riddle
      D            Am7              D
And refuse to even choose to let me go


D  Am7  D


   G
It used to be I'd tell you all my secrets
G
Giving you the credit you deserved
  G
I guess you didn't care to lose or keep it
       D             Am7              D
And we never quite connected from the first


      Em                         G
And I wish I had a way to make it better
   Em                           G
To rearrange the world and make you smile
         Em                            G
But it's dumb to even think I had that power
       D                 Am7        D
And we haven't been that close in a while


D  Am7  D


Guitar solo:

e|--------------------------------------------2-2-3-0-----------------------|
B|--------------------------------------------0-0-0-0-3---0-----------------|
G|----------------------------------------------------0---0-----------------|
D|----0-/5-07-0-9-9-9-9---0-/5-0-7-0-5-5-5-5---------0---0-----------------|
A|--------------------------------------------------------------------------|
E|--3--------------------3--------------------------------------------------|

e|-----------------------2-2-3-0----------10-10-----------------------------|
B|-----------------------0-0-0-0-3-3-0----0--0--13-12-8--8--10-8------------|
G|-------------------------------0-0-0----------0--0--0-0--0--0------------|
D|----0-/5-07-0-9-9-9-9---------0-0-0--------------------------------------|
A|--------------------------------------------------------------------------|
E|--3-----------------------------------------------------------------------|

e|-----2-2-3-0----------10-10---------------------2-2-3-0-------------------|
B|-----0-0-0-0-3-3-0----0--0--13-12-8--8--10-8----0-0-0-0-3-3-0-------------|
G|-------------0-0-0----------0--0--0-0--0--0------------0-0-0-------------|
D|-------------0-0-0--------------------------------------0-0-0-------------|
A|--------------------------------------------------------------------------|
E|--------------------------------------------------------------------------|


    Em                        G
And I don't even wanna try to name it
  Em                                G
Explain it for the one who couldn't care
                Em                              G
'Cause all that matters is the way you choose to frame it


D  Am7  D


      G
And I hesitate to say that you're a liar
  G
I never tell the truth myself
      G
But I tried to chase you down and I got tired
       D              Am7             D
So I'm leaving you to be with someone else


           Em                         G
'Cause you never wanna hook up in the middle
        Em                            G
And I'd meet you there to talk if you would show
        Em                           G
But you answer every question with a riddle
      D            Am7              D
And refuse to even choose to let me go


D  Am7  D





Comments


Popular Sebadoh tabs & chords
Dreams Bass Tabs
Flood Chords
Not A Friend Live Tabs
Sacred Attention Tabs
Sacred Attention 1 Tabs
Skull Tabs
Think Tabs
Together Or Alone Intro Tabs
Soul And Fire Ukulele
Think Ukulele


Song lyrics



↑ Back to top | Tablatures and chords are parodies/interpretations of the original songs. You may use it for private study, scholarship, research or language learning purposes only
© 2014 AZChords.com Contact us | Privacy policy | DMCA | Add/correct tabs | Request tabs | Top 50 tabs