» » »

Love Is The Law Tabs (ver.2)

Artists:  A B C D E F G H I J K L M N O P Q R S T U V W X Y Z # 

Love Is The Law Tabs (ver.2)

Seahorses
Rating:
0/5 (0 votes)

Hard to play? Try these video lessons and learn fast.
                (Intro)
Love Is The Law - Intro
The Seahorses

p= pull off
h= hammer on
b= bend

Capo 2nd fret

e----------------------------------------------
B----------------------------------------------
G-----------------2-------------0-------2------
D---5-4-0------------------0h2-----------------
A-----------0h3------0-------------0h3-----0---
E----------------------------------------------

e----------------------------------------------
B---3-2-0--------------------------------------
G-----------0h2------2----------2-------2------
D----------------------------------------------
A-----------------0--------3b4-----4b5-----3p0-
E----------------------------------------------

e----------------------------------------------
B----------------------------------------------
G----------------------------------------------
D-----------------2-------------0-------2------
A---5-4-0------------------0h2-----------------
E-----------0h3------0-------------0h3-----0---

e---3-2-0--------------------------------------
B----------------------------------------------
G----------------------------------------------
D-----------0h2-----2----------2---------------
A----------------------------------------------
E----------------0--------3b4-----4b5--3p0--
            
Hard to play? Try these video lessons and learn fast. | Correct




comments powered by Disqus
↑ Back to top | Tablatures and chords are parodies/interpretations of the original songs. You may use it for private study, scholarship, research or language learning purposes only