>
 >
Love Is The Law 1

Love Is The Law 1 Guitar Tabs

Seahorses - Love Is The Law 1 chords, tabs, tablatures, lyrics

Guitar lessons | Add/correct | Request | Top 50 tabs Artists:  A B C D E F G H I J K L M N O P Q R S T U V W X Y Z 0-9

Love Is The Law 1 Guitar Tabs – Seahorses

CD, Sheet music, Poster

Do you like Love Is The Law 1? Share with your friends now
Bass TabsBass Tabs v2ChordsTabsTabs v2Tabs v3Ukulele
Song Title - Love Is The Law
Artists - The Seahorses
Album Title - Do It Yourself
Track Number - 5
Length - 7:44
Songwriter - John Squire

Transcribed - Carl Kent

Chords Used(with Capo)- 2 = open

I'm sure these are right, but they are off the top of my head

F# - 244322
B - 224442
D - 254232
C#7 - 446464
E - 222454
C# - 446664
Bsus4 - 799977
B2 - 799877
Asus4 - 577755
A - 577655
G# - 466544
G#7sus4 - 464644
A2 - 542255

O.K this is an easy basis for the song. It's my first tab, so if
there's any mistakes, then tell me and i'll corrrect them. I'll only
tab the first half of the song, which is the same as the single, because
it will take me far too long to tab the 4 minute solo. There are lots of
lead parts during the verse, but there preety easy to work out, if you
can't, maybe you should put the guitar down.

Enjoy...

Capo 2nd fret = tabbed as 2nd fret is 0, third fret is 1,etc

INTRO (x2)

e----------------------------------------------------------------------|
B------------------------------------3p2p0-----------------------------|
G------------2----------0-----2------------0h2---2--------2-----2------|
D--5p4p0------------0h2------------------------------------------------|
A--------0h3---0----------0h3---0--------------0------3b4---4p5---3p0--|
E----------------------------------------------------------------------|

VERSE 1

F#
We lived in a dogfish egg case, you can barely call it home,
B
sorry little lot, no roof on top
F#
but the fish left us alone.
D                           C#7                  F#
Try a little more, said the girl next door, it's time to roam.

FILL 1


e---------------------------------------------------------------------|
B---------------------------------------------------------------------|
G---------------------------------------------------------------------|
D--2p0-0--------------------------------------------------------------|
A--------2p0-0--------------------------------------------------------|
E--------------3-0----------------------------------------------------|

VERSE 2 - Chords - as VERSE 1

Mad Lizzy crumbs, blind cobblers, were a sight to behold,
she was a rum old slapper and we always tried to get her
pants off when she phoned.
Left her cap by the sink, it's not what you think, oh take me home.
(FILL 1)

CHORUS 2

F#
Now we know where we're going baby, we can
E                       B
lay back, and enjoy the ride.
F#
Take in the sights and drown in our senses,
E                   F#
love is the law, so take me deep
B
inside.
(INTRO RIFF x1)

VERSE 3 - Chords - as VERSE 1

Strap-on Sally, chased us down the alley, we feared for our behinds,
Oasis was a shop, with shoes so hot,
they were sure to blow your minds.
Running so fast, I could taste the, oh take me home.

CHORUS 2

F#
Now we know where we're going baby, we can
E                       B
lay back, and enjoy the ride.
F#
Take in the sights and drown in our senses,
E                   F#
love is the law, so take me deep
E
inside.......

BRIDGE - No guitar after B

E     B
These waters run deep it's clear my little one,
blue velvet star sky not a sound.
The light in your eyes, the smile on your ruby lips,
tells me my lost soul is
E     /C# /Bsus4 /B2 /Asus4 /A /G# /G#7sus4 /G#
found.

CHORUS 3 - The key of the song has now changed!

B
Now we know where we're going baby,we can
A2                     E
lay back and enjoy the ride.
B
Take in the sights and drown in our senses,
A2                  B
love is the law, so take me deep
E     /F#
inside

FINAL RIFF

e------------------------------------3p2p0----------------------------|
B---------------------------------------------------------------------|
G---------------------------------------------------------------------|
D------------2----------0-----2------------0h2---2--------2-----2-----|
A--5p4p0------------0h2-----------------------------------------------|
E--------0h3---0----------0h3---0--------------0------3b4---4b5---3p0-|

e------------------------------------3p2p0------------------------------|
B-----------------------------------------------------------------------|
G-----------------------------------------------------------------------|
D------------2----------0-----2------------0h2---2--------2-----2-------|
A--5p4p0------------0h2-------------------------------------------------|
E--------0h3---0----------0h3---0--------------0------3b4---4b5---3b4p0-|

There's a little bass solo, which is then followed by one of the best
solo's i've ever heard. If you haven't got the album vesion - get it.
Squire now goes mental and some parts are un-tabable, but with hard work
you'll probably be able to work some of it out. The chords over the solo
are similar to the ones used in the verse and chorus.





Comments


Popular Seahorses tabs & chords
Happiness Is Eggshaped Chords
Keeping Time Chords
You Can Talk To Me Chords
199 Tabs
Dreamer Tabs
Falling Is Easy Tabs
Hello Tabs
Love Is The Law Tabs
Boy In The Picture Ukulele
Happiness Is Eggshaped Ukulele


Song lyrics



↑ Back to top | Tablatures and chords are parodies/interpretations of the original songs. You may use it for private study, scholarship, research or language learning purposes only
© 2014 AZChords.com Contact us | Privacy policy | DMCA | Add/correct tabs | Request tabs | Top 50 tabs