» » »

Drowning You In Fear Bass tabs (ver.1)

Artists:  A B C D E F G H I J K L M N O P Q R S T U V W X Y Z # 

Drowning You In Fear Bass tabs (ver.1)

Scary Kids Scaring Kids
Rating:
5/5 (2 votes)

Hard to play? Try these video lessons and learn fast.
                Scary Kids Scaring Kids
The City Sleeps In Flames CD

STANDARD TUNING:
E A D G

Verse:
G|----------------------------------------------------------------|
D|----------------------------------------------------------------|
A|-7-7-77--7-7-77--7-7-77--7-7-77--3-3-33--3-3-33--5-5-55--5-5-55-|
E|----------------------------------------------------------------| x2

then:
|--------|
|--------|
|-2~-----|
|--------|

Chorus:
|-------------------------------------------------------------|
|-------------------------------------------------------------|
|-----------------3-3-3-3-3-3-3-3-5-5-5-5-2-2-2-2-5-5-5-5--5--|
|-0-0-0-0-0-0-0-0---------------------------------------------|

Verse 2:
|----------------------------------------------------------------|
|----------------------------------------------------------------|
|-7-7-77--7-7-77--7-7-77--7-7-77--3-3-33--3-3-33--5-5-55--5-5-55-|
|----------------------------------------------------------------|

then:
|-------|
|-------|
|-2~----|
|-------|

Chorus: x2

Bridge:
There is no bass here, but here's the tab to match the vocals :]
  "The time will come..."
|--97-----97---------97----99997--7----97-------|
|----9~-----9-7-9~------9-------99-9-----9-7-9~-|
|-7------7----------7-----------------7---------|
|-----------------------------------------------|

Chorus: x2

Ending:
|----------------------------------|
|----------------------------------|
|-555555-5-5-333333-3-3-222222-2-2-|
|----------------------------------|

|---------------------------------|
|---------------------------------|
|-7-7-77--7-7-77--7-7-77--7-7-7-7-|
|---------------------------------|

That will it do it for this song.
            
Hard to play? Try these video lessons and learn fast. | Correct




comments powered by Disqus
↑ Back to top | Tablatures and chords are parodies/interpretations of the original songs. You may use it for private study, scholarship, research or language learning purposes only