>
 >
A Breath Of Sunshine

A Breath Of Sunshine Guitar Tabs

Scary Kids Scaring Kids - A Breath Of Sunshine chords, tabs, tablatures, lyrics

Guitar lessons | Add/correct | Request | Top 50 tabs Artists:  A B C D E F G H I J K L M N O P Q R S T U V W X Y Z 0-9

A Breath Of Sunshine Guitar Tabs – Scary Kids Scaring Kids

CD, Sheet music, Poster

Do you like A Breath Of Sunshine? Share with your friends now
Tabs

Tabs For the song: A Breath Of Sunshine by Scary Kids Scaring Kids
Please rate and let me know if you have any corrections. Thank you.

Ok. I'm really open for corrections on this one. It was pretty hard for me 
to transcribe (my hardest yet, probably why no one has tabbed it), but 
this is all I can do.
If anything needs work on it would be the outro.

Tuning: Standard

  
Intro
Guitar 1:
E||----12-------14-------10---|
B||-------12------------------|
G||-12-------12----12-11------| x2
D||---------------------------|
A||---------------------------|
E||---------------------------|


E||------------------------------------------------|
B||----12-------12-------12-------10-------10------|
G||-------12-------12-------12-------12-------12---|
D||-10-------10-------10-------10-------10---------|
A||------------------------------------------------|
E||------------------------------------------------|


E||------------------------------------------------|
B||----12-------12---------------------------------|
G||-------12-------12----14-12-10-14-12-10-14-12---|
D||-12-------12-------12---------------------------|
A||------------------------------------------------|
E||------------------------------------------------|


Guitar 2:
E||----7-----------10---------|
B||------8---7h8-7------------|
G||--9-----9------------------| x2
D||---------------------------|
A||---------------------------|
E||---------------------------|


E||-----7-----7-----7-----7-----7-------7-----7-----7-----7-----7---|
B||---5-----5-----5-----5-----5-------5-----5-----7-----7-----7-----|
G||-5-----5-----5-----5-----5-------7-----7-----7-----7-----7-------|
D||-----------------------------------------------------------------|
A||-----------------------------------------------------------------|
E||-----------------------------------------------------------------|



Verse
Guitar 1:
E||---------------------------------|----------------------------------------------------|
B||------------15-------------------|------------15---------------15--------10-12-10-----|
G||---11h12-11----12---11h12--------|---11h12-11----12---11h12-11----12-12-----------12--|
D||--------------------------12-----|----------------------------------------------------|
A||---------------------------------|----------------------------------------------------|
E||---------------------------------|----------------------------------------------------|


E||---------------------------------|--------------------------------------------------|
B||------------15-------------------|--------------------------------------------------|
G||---11h12-11----12---11h12--------|-12p11----12p11----12p11----12p11----12p11----11--| x2
D||--------------------------12-----|-------12-------12-------12-------12-------12-----|
A||---------------------------------|--------------------------------------------------|
E||---------------------------------|--------------------------------------------------|



Pre-Chorus
Guitar 1:
E||-------------------------------|
B||-12--10------12--10------12----|
G||---------11----------11--------|
D||-------------------------------|
A||-------------------------------|
E||-------------------------------|


Guitar 2:
E||-------------------------------|
B||-------------------------------|
G||-5-5--x--5-5--x--5-------------|
D||-5-5--x--5-5--x--5-------------|
A||-3-3--x--3-3--x--3-------------|
E||-------------------------------|



Verse
Guitar 1:
E||---------------------------------|----------------------------------------------------|
B||------------15-------------------|------------15---------------15--------10-12-10-----|
G||---11h12-11----12---11h12--------|---11h12-11----12---11h12-11----12-12-----------12--|
D||--------------------------12-----|----------------------------------------------------|
A||---------------------------------|----------------------------------------------------|
E||---------------------------------|----------------------------------------------------|


E||---------------------------------|--------------------------------------------------|
B||------------15-------------------|--------------------------------------------------|
G||---11h12-11----12---11h12--------|-12p11----12p11----12p11----12p11----12p11---14---|
D||--------------------------12-----|-------12-------12-------12-------12--------------|
A||---------------------------------|--------------------------------------------------|
E||---------------------------------|--------------------------------------------------|



Pre-Chorus
Guitar 1:
E||---------------------------------|--------------------------------------------|
B||-12--10------12--10------12-10---|-12--10------12--10------1212121212121212---|
G||---------11----------11----------|---------11----------11---------------------|
D||---------------------------------|--------------------------------------------|
A||---------------------------------|--------------------------------------------|
E||---------------------------------|--------------------------------------------|


Guitar 2:
E||-----------------------|---------------------------|
B||-----------------------|---------------------------|
G||-5-5--x--5-5--x--55-x--|-3-3--x--3-3--x--77777777--|
D||-5-5--x--5-5--x--55-x--|-3-3--x--3-3--x--77777777--|
A||-3-3--x--3-3--x--33-x--|-3-3--x--3-3--x--55555555--|
E||-----------------------|---------------------------|



Chorus
Guitar 2:
E||---------------------------------------------------------|
B||---------------------------------------------------------|
G||---------------------------555555555555--22222---77777---|
D||-222222222222-555555555555-555555555555--22222---77777---|
A||-222222222222-555555555555-333333333333--00000---55555---|
E||-000000000000-333333333333-------------------------------|


E||-------------------------------|
B||-------------------------------|
G||---------------------------5---|
D||-222222222222-555555555555-5---|
A||-222222222222-555555555555-3---|
E||-000000000000-333333333333-----|


Guitar 1:
E||--------------------------------------------------------------------|
B||--------------------------------------------------------------------|
G||----------12-----------14-----------12-----12--11-------12--11------|
D||-------12-----------12-----------12----------------12-----------12--|
A||-12-14--------12-14--------12-14------------------------------------|
E||--------------------------------------------------------------------|


E||--------------------------------|
B||--------------------------------|
G||----------12-----------14---12--|
D||-------12-----------12----------|
A||-12-14--------12-14-------------|
E||--------------------------------|



Pre-Verse
Guitar 1:
E||--------------------------|
B||------------12------------|
G||-------12------11-12/14---|
D||----14--------------------|
A||-15-----------------------|
E||--------------------------|



Verse
Guitar 1:
E||---------------------------------|----------------------------------------------------|
B||------------15-------------------|------------15---------------15--------10-12-10-----|
G||---11h12-11----12---11h12--------|---11h12-11----12---11h12-11----12-12-----------12--|
D||--------------------------12-----|----------------------------------------------------|
A||---------------------------------|----------------------------------------------------|
E||---------------------------------|----------------------------------------------------|


E||---------------------------------|--------------------------------------------------|
B||------------15-------------------|--------------------------------------------------|
G||---11h12-11----12---11h12--------|-12p11----12p11----12p11----12p11----12p11----11--| x2
D||--------------------------12-----|-------12-------12-------12-------12-------12-----|
A||---------------------------------|--------------------------------------------------|
E||---------------------------------|--------------------------------------------------|



Pre-Chorus
Guitar 1:
E||---------------------------------|--------------------------------------------|
B||-12--10------12--10------12-10---|-12--10------12--10------1212121212121212---|
G||---------11----------11----------|---------11----------11---------------------|
D||---------------------------------|--------------------------------------------|
A||---------------------------------|--------------------------------------------|
E||---------------------------------|--------------------------------------------|


Guitar 2:
E||-----------------------|---------------------------|
B||-----------------------|---------------------------|
G||-5-5--x--5-5--x--55-x--|-3-3--x--3-3--x--77777777--|
D||-5-5--x--5-5--x--55-x--|-3-3--x--3-3--x--77777777--|
A||-3-3--x--3-3--x--33-x--|-3-3--x--3-3--x--55555555--|
E||-----------------------|---------------------------|



Chorus
Guitar 2:
E||---------------------------------------------------------|
B||---------------------------------------------------------|
G||---------------------------555555555555--22222---77777---|
D||-222222222222-555555555555-555555555555--22222---77777---|
A||-222222222222-555555555555-333333333333--00000---55555---|
E||-000000000000-333333333333-------------------------------|


E||-------------------------------|
B||-------------------------------|
G||---------------------------5---|
D||-222222222222-555555555555-5---|
A||-222222222222-555555555555-3---|
E||-000000000000-333333333333-----|


Guitar 1:
E||--------------------------------------------------------------------|
B||--------------------------------------------------------------------|
G||----------12-----------14-----------12-----12--11-------12--11------|
D||-------12-----------12-----------12----------------12-----------12--|
A||-12-14--------12-14--------12-14------------------------------------|
E||--------------------------------------------------------------------|


E||--------------------------------------------------------------------------|
B||------------------------------------------------------------15------------|
G||----------12-----------14-----12-11-----12-11-----12-11--------16--14b16--|
D||-------12-----------12--------------12--------12--------12----------------|
A||-12-14--------12-14-------------------------------------------------------|
E||--------------------------------------------------------------------------|



Bridge (mainly a piano fill)
Guitar 2:
E||-----|
B||-----|
G||-----|
D||--2--|
A||--2--|
E||--0--|



Pre-Chorus
E||-------------------------------------------------|
B||-------------------------------------------------|
G||------------------------5-----5-----5-5555-7777--| x2
D||-2-----2-22222---2-2222-5-----5-----5-5555-7777--|
A||-2-----2-22222---2-2222-3-----3-----3-3333-5555--|
E||-0-----0-00000---0-0000--------------------------|


E||-------------------------|
B||-------------------------|
G||-222222-444444-5555555---|
D||-222222-444444-5555555---|
A||-000000-222222-3333333---|
E||-------------------------|



Chorus
Guitar 2:
E||---------------------------------------------------------|
B||---------------------------------------------------------|
G||---------------------------555555555555--22222---77777---| x2
D||-222222222222-555555555555-555555555555--22222---77777---|
A||-222222222222-555555555555-333333333333--00000---55555---|
E||-000000000000-333333333333-------------------------------|


E||-----------------------------------------------|
B||-----------------------------------------------|
G||---------------------------5-5--x--5-5--x--5---|
D||-222222222222-555555555555-5-5--x--5-5--x--5---|
A||-222222222222-555555555555-3-3--x--3-3--x--3---|
E||-000000000000-333333333333---------------------|


Guitar 1:
E||--------------------------------------------------------------------|
B||--------------------------------------------------------------------|
G||----------12-----------14-----------12-----12--11-------12--11------| x2
D||-------12-----------12-----------12----------------12-----------12--|
A||-12-14--------12-14--------12-14------------------------------------|
E||--------------------------------------------------------------------|


E||-------------------------------------------------------|
B||-------------------------------------------------------|
G||----------12-----------14-----12--11-------12--11------|
D||-------12-----------12----------------12-----------12--|
A||-12-14--------12-14------------------------------------|
E||-------------------------------------------------------|


E||------------------------|
B||-12-------------10-12---|
G||----12----11/12---------|
D||-------12---------------|
A||------------------------|
E||------------------------|



Outro
Guitar 1:

E||-10----------------------------|-10-----------------------------|
B||----------12-------10----------|----------12-------10h12-10h12--|
G||----11-12----11-12----12--x2---|----11-12----11-12--------------| x2
D||-------------------------------|--------------------------------|
A||-------------------------------|--------------------------------|
E||-------------------------------|--------------------------------|


E||-10----------------------------|-10-------12---------|
B||----------12-------10----------|-------------12------|
G||----11-12----11-12----12--x2---|----11-12-------12---|
D||-------------------------------|---------------------|
A||-------------------------------|---------------------|
E||-------------------------------|---------------------|


E||-14--------|
B||----15-----|
G||-------16--| x16
D||-----------|
A||-----------|
E||-----------|


Guitar 2:
E||--------|
B||-8------|
G||---7----| x16
D||-----9--|
A||--------|
E||--------|




Tablature Legend
----------------
 h   - hammer-on
 p   - pull-off
 b   - bend
 r   - release bend
 *   - pinch harmonic
 '   - natural harmonic
 x   - mute note
 .   - palm mute
 /   - slide down
 \   - slide up





Comments


Popular Scary Kids Scaring Kids tabs & chords
Goes Without Saying 2 Chords
Star Crossed Chords
Watch Me Bleed Chords
City Sleeps In Flames Tabs
Degenerates Tabs
Empty Glasses 2 Tabs
Just A Taste Tabs
My Darkest Hour 1 Tabs
Star Crossed Tabs
Whats Up Now Intro 1 Tabs


Song lyrics



↑ Back to top | Tablatures and chords are parodies/interpretations of the original songs. You may use it for private study, scholarship, research or language learning purposes only
© 2014 AZChords.com Contact us | Privacy policy | DMCA | Add/correct tabs | Request tabs | Top 50 tabs