» » »

Scars Of Life, Pool Of Fears Tabs (ver.2)

Artists:  A B C D E F G H I J K L M N O P Q R S T U V W X Y Z # 

Pool Of Fears Tabs (ver.2)

Scars Of Life Tabs
 Rating:
4/5 (4 votes)
Pool Of Fears lessons Tabs too difficult? Try these video lessons and learn fast
                                Pool Of Fears – Scars Of Life


Tuning:CGCFAD

This song doesn’t sound like 2 guitars at the beginning because they both pretty much 
the same thing but at the end you can hear 2 different guitars but you can play most of it 
1

D|--------------------------------------------------------|
A|--------------------------------------------------------|
F|--------------------------------------------------------|
C|-7h8p7-5h7------10--10--10—-7h8p7—5h7----8------0-0-0---|
G|------------------------------------------------0-0-0---|
C|0-----0---0----8---8---8----0-----0----5--5-----0-0-0---|
                                                                                         
                x x x


I don’t know if it’s the distortion in the song but I don’t
really hear a hammer on from 7 to 8 on this part it
sounded more like a bend and release so that’s what I put its not a very big bend just
 mess around with it and you’ll figure it out

D|------------------------------------------------------|
A|------------------------------------------------------|
F|------------------------------------------------------|
C|--------------10----10-------10------------7---7-----3| X2
G|0-7br-0-5h7-0-8—-8—-8—-8—-8—-8-0-7br-0-5h7-5-5-5-3-3-3|
C|0-7br-0-5h7-0-8—-8—-8—-8—-8—-8-0-7br-0-5h7-5-5-5-3-3-3|
  x           x    x     x  x    x             x   x x

D|--------------------------------------------------|
A|--------------------------------------------------|
F|--------------------------------------------------|
C|-7h8p7-5h7------10--10--10—-7h8p7—5h7---8--7---5--|x4
G|--------------------------------------------------|
C|0-----0---0-5/8---8---8----0-----0----5---5--5----|

D|------------------------------------------------------|
A|------------------------------------------------------|
F|------------------------------------------------------|
C|--------------10----10-------10------------7---7-----3| X2
G|0-7br-0-5h7-0-8—-8—-8—-8—-8—-8-0-7br-0-5h7-5-5-5-3-3-3|
C|0-7br-0-5h7-0-8—-8—-8—-8—-8—-8-0-7br-0-5h7-5-5-5-3-3-3|
  X           x    x     x  x    x             x   x x

D|-------|
A|-------|
F|-------|
C|0-3-8-5| X2
G|0-3-8-5|
C|0-3-8-5|


D|------------------------------------------------------|
A|------------------------------------------------------|
F|------------------------------------------------------|
C|-7h8p7-5h7------10--10--10—-7h8p7—5h7---8--7---5------|x4
G|------------------------------------------------------|
C|0-----0---0-5/8---8---8----0-----0----5---5--5--------|

D|------------------------------------------------------|
A|------------------------------------------------------|
F|------------------------------------------------------|
C|--------------10----10-------10------------7---7-----3| X2
G|0-7br-0-5h7-0-8—-8—-8—-8—-8—-8-0-7br-0-5h7-5-5-5-3-3-3|
C|0-7br-0-5h7-0-8—-8—-8—-8—-8—-8-0-7br-0-5h7-5-5-5-3-3-3|
  X           x    x     x  x    x             x   x x
D|-------|
A|-------|
F|-------|
C|0-3-8-5| X2
G|0-3-8-5|
C|0-3-8-5|

D|--------------|
A|--------------|
F|--------------|
C|0-0-0—-0-3-8-5|x2
G|0-0-0—-0-3-8-5|
C|0-0-0—-0-3-8-5|
  x x x
Strum every note 8 times
D|-------------------------------------------|
A|-------------------------------------------|
F|9-14-12—7-9-14-12-7-9-14-16-17-19-9-14-12-7|
C|x--x—-x—x-x--x—-x—x-x--x—-x—-x—-x—x--x—-x—x|
G|7-12-10-5—7-12-10-5—7-12-14-15-17-7-12-10-5|
C|-------------------------------------------|

D|------------------------------------------------------|
A|------------------------------------------------------|
F|------------------------------------------------------|
C|--------------10----10-------10------------7---7-----3| x2
G|0-7br-0-5h7-0-8—-8—-8—-8—-8—-8-0-7br-0-5h7-5-5-5-3-3-3|
C|0-7br-0-5h7-0-8—-8—-8—-8—-8—-8-0-7br-0-5h7-5-5-5-3-3-3|
  X           x    x     x  x    x             x   x x
D|-------|
A|-------|
F|-------|
C|0-3-8-5| X2
G|0-3-8-5|
C|0-3-8-5|

D|--------------|
A|--------------|
F|--------------|
C|0-0-0—-0-3-8-5| x2
G|0-0-0—-0-3-8-5|
C|0-0-0—-0-3-8-5|
  x x x
Now this is the 2 guitar part. One of the guitars plays whats right below this 
and then the second one comes in later.


I Guitar
D|---| in the middle from when this starts and the second guitar comes in A|---|they 
this a little bit
F|-7-|
C|-x-|
G|-5-|
C|---|

II Guitar
And below this its 10 10 10 not 1 0 1 0 1 0 (not that you needed help figuring that out)
D|--------------------------------------------------------|
A|--------------------------------------------------------|
F|--------------------------------------------------------|
C|777-99-101010-999-77-999-777-99-101010-121212-1010-9-9-9|
G|--------------------------------------------------------|
C|--------------------------------------------------------|

I Guitar

D|------|
A|------|
F|------|
C|-7-3-5|
G|-7-3-5|
C|-7-3-5|

II Guitar
D|--------------------------------------------------------|
A|--------------------------------------------------------|
F|--------------------------------------------------------|
C|777-99-101010-999-77-999-777-99-101010-121212-1010-9-9-9|
G|--------------------------------------------------------|
C|--------------------------------------------------------|

I Guitar
D|------|
A|------|
F|------|
C|-7-3-5|
G|-7-3-5|
C|-7-3-5|

II Guitar
D|-------------------------------------------|
A|-------------------------------------------|
F|9-14-12—7-9-14-12-7-9-14-16-17-19-9-14-12-7|
C|x--x—-x—x-x--x—-x—x-x--x—-x—-x—-x—x--x—-x—x|
G|7-12-10-5—7-12-10-5—7-12-14-15-17-7-12-10-5|
C|-------------------------------------------|

X = palm mute
br = bend and release                     Enjoy
            
Submit corrections

comments powered by Disqus
↑ Back to top | Scars Of Life Tabs for Pool Of Fears. Lyrics for acoustic guitar and electric guitar. Tablatures and chords are parodies/interpretations of the original songs. You may use it for private study, scholarship, research or language learning purposes only