» » »

Pool Of Fears Bass tabs (ver.1)

Artists:  A B C D E F G H I J K L M N O P Q R S T U V W X Y Z # 

Pool Of Fears Bass tabs (ver.1)

Scars Of Life
Rating:
5/5 (2 votes)

Hard to play? Try these video lessons and learn fast.
                Scars of Life: Pool of Fears *BASS*

Tuning: D A D G

~:vibrato

Intro (0:05)
G |---------|
D |---------|
A |---------|
D |--0-0-0--|

Heavy Riff (0:06)
G |----------------------------------------|
D |----------------------------------------|
A |----------------------------------------|
D |--5-7-3-5--7-77-777--5-7-3-5--3-33-222--|

Verse (0:18)		Last Time
G |------------------|---------------|
D |------------------|---------------|
A |------------------|---------------|
D |--0~-5~-3~-7~-3---|--0~-5~-3~-7~--|

Heavy Riff (0:41)
G |----------------------------------------|
D |----------------------------------------|
A |----------------------------------------|
D |--5-7-3-5--7-77-777--5-7-3-5--3-33-222--|

Chorus (0:53)
G |----------------------------|
D |----------------------------|
A |----------------------------|
D |--00-0-0-22222-55555-33333--|

Verse (1:05)		Last Time
G |------------------|---------------|
D |------------------|---------------|
A |------------------|---------------|
D |--0~-5~-3~-7~-3---|--0~-5~-3~-7~--|

Heavy Riff (1:30)
G |----------------------------------------|
D |----------------------------------------|
A |----------------------------------------|
D |--5-7-3-5--7-77-777--5-7-3-5--3-33-222--|

Chorus (1:42)
G |----------------------------|
D |----------------------------|
A |----------------------------|
D |--00-0-0-22222-55555-33333--|

Breakdown (2:05)
G |---------------------------|
D |---------------------------|
A |---------------------------|
D |--00000-55555-33333-22222--|

Continued (2:17)
G |--------------------------------------|
D |--------------------------------------|
A |--------------------------------------|
D |--00000-55555-77777-8888-10-10-10-10--|

G |-----------------------------------|
D |-----------------------------------|
A |-----------------------------------|
D |--00000-55555-3333-3333-3333-3333--|

Heavy Riff (2:30)
G |----------------------------------------|
D |----------------------------------------|
A |----------------------------------------|
D |--5-7-3-5--7-77-777--5-7-3-5--3-33-222--|

Chorus (2:41)
G |----------------------------|
D |----------------------------|
A |----------------------------|
D |--00-0-0-22222-55555-33333--|

Bass Solo (3:07)
G |-------------------------------------------|
D |-------------------------------------------|
A |-------------------------------------------|
D |--5555-5555-2222-2222-3333-3333-3333-3333--|

Final Riff (3:32)
G |-------------------------------|
D |-------------------------------|
A |-------------------------------|
D |--55555~-22222~-33333~-33333~--|
            
Hard to play? Try these video lessons and learn fast. | Correct




comments powered by Disqus
↑ Back to top | Tablatures and chords are parodies/interpretations of the original songs. You may use it for private study, scholarship, research or language learning purposes only