» » »

Saving Jane, Come Down To Me Tabs (ver.1)

Artists:  A B C D E F G H I J K L M N O P Q R S T U V W X Y Z # 

Come Down To Me Tabs (ver.1)

Saving Jane Tabs
 Rating:
3.7/5 (6 votes)
Come Down To Me lessons Tabs too difficult? Try these video lessons and learn fast
1
                // Song: Come Down To Me //
// Artist: Saving Jane //

[Intro]
|---------------------------------2---2-----------------|
|--------------------7---7------------------0---4-4-----|
|-----11---11------4---4---4----4---4---4-----6-----6-4-|
|---9----9----9--6------------2-----------6-------------|
|-9-----------------------------------------------------|
|-------------------------------------------------------| [2x]

[Verse 1]
|---------------------------------2---2-----------------|
|--------------------7---7------------------0---4-4-----|
|-----11---11------4---4---4----4---4---4-----6-----6-4-|
|---9----9----9--6------------2-----------6-------------|
|-9-----------------------------------------------------|
|-------------------------------------------------------| [2x]
Words fall out of my mouth...

[Filler]
|-----------------------------------------------|
|-----------------------------------------------|
|-----8----8----8----8--------8----8---8----8---|
|---9---11---9----11---9----9---11---9---11---9-|
|-9----------------------11---------------------|
|-----------------------------------------------|

[Verse 2]
|---------------------------------2---2-----------------|
|--------------------7---7------------------0---4-4-----|
|-----11---11------4---4---4----4---4---4-----6-----6-4-|
|---9----9----9--6------------2-----------6-------------|
|-9-----------------------------------------------------|
|-------------------------------------------------------| [2x]
Keeping up on my tongue...

|------------------------------------|
|---------7------------------7-------|
|-9---8-9---8-8-6----9---8-9---8-8-6-|
|------------------------------------|
|------------------------------------|
|------------------------------------|
When the light...

|-----------------------------------|       
|-----------------------------------|       
|------------8----------8-----------|       
|---9---9-11---9---9-11---11-11-9-9-|       
|-9---9----------9------------------|       
|-----------------------------------| [2x]  
You're beautiful...                         

|--------------------------------|
|--------------------------------|
|--------------------8----8------|
|------4-----------4---11---11-9-|
|-6--6---6-4--6--6---------------|
|--------------------------------|
And I wish...

[Filler]
|-----------------------------------------------|
|-----------------------------------------------|
|-----8----8----8----8--------8----8---8----8---|
|---9---11---9----11---9----9---11---9---11---9-|
|-9----------------------11---------------------|
|-----------------------------------------------|

[Verse 3]
|---------------------------------2---2-----------------|
|--------------------7---7------------------0---4-4-----|
|-----11---11------4---4---4----4---4---4-----6-----6-4-|
|---9----9----9--6------------2-----------6-------------|
|-9-----------------------------------------------------|
|-------------------------------------------------------| [2x]
Spelling out in a song...

|------------------------------------|
|---------7------------------7-------|
|-9---8-9---8-8-6----9---8-9---8-8-6-|
|------------------------------------|
|------------------------------------|
|------------------------------------|
When you see...

|-----------------------------------|       
|-----------------------------------|       
|------------8----------8-----------|       
|---9---9-11---9---9-11---11-11-9-9-|       
|-9---9----------9------------------|       
|-----------------------------------| [2x]  
You're beautiful...                         

|--------------------------------|
|--------------------------------|
|--------------------8----8------|
|------4-----------4---11---11-9-|
|-6--6---6-4--6--6---------------|
|--------------------------------|
And I wish...

[Outro]
|------------------------------------------------|
|------------------------------------------------|
|----8----8-------11----8-----8----8------11---8-|
|-11---11---11-9-----9-----11---11---11-9----9---|
|------------------------------------------------|
|------------------------------------------------| [2x]
Come down to me...

// Hard one T_T coz its in piano... //
// I hope, I got it right ^_^ //

[ eLai Uy ]
            
Submit corrections

comments powered by Disqus
↑ Back to top | Saving Jane Tabs for Come Down To Me. Lyrics for acoustic guitar and electric guitar. 1 Tablatures and chords are parodies/interpretations of the original songs. You may use it for private study, scholarship, research or language learning purposes only